Give Kudos?
Are you sure you want to give kudos to aflaash?

Add To Songbook?
Are you sure you want to add this song to your songbook?


473 bands | 1,727 songs
Search: Register FREE! | Login
Browse Songs:
Browse Bands:
Tool Panel
Discuss This Song

1 2 3 4 5



Shona Laing - (glad I'm) Not A Kennedy (Bass)
Submitter: aflaash (0) on 1/29/14
Month Views: 21 | Total Views: 3,040
Help! We need a moderator for this artist. | Report This Song?
Song Tools

Comment

Songbook

Kudos

Show Chords

Print

It's hard to find a good song that hasn't already been tabbed but here's a chart topper from 1986/7
by the wonderful New Zealand artist Shona Laing. You can check out more Shona on her web site
(http://www.shonalaing.com).

It bounces along with punchy notes.You'll find the timing in the song (available on iTunes). 
Welcome all comments.

Enjoy



Intro (Oboe/Cello tabbed for Bass)

G:|----7-5---|--7-9--------|----------|----------|
D:|--5-------|-------5-7---|---3-2-0--|-3----5---|
A:|----------|-------------|----------|----------|
E:|----------|-------------|----------|----------|
    
Main Verse Riff 

G:|----------|-------------|----------|-----------|
D:|----------|--0-2--------|--3-3-2-0-|-----------|
A:|----5-3---|--------0----|----------|-----------|
E:|--3-------|------3------|----------|--1----1-3-|

Bridge Riff

             "Wearing the fame like a loaded gun..." 
G:|----------|--------------|----------|-----------|
D:|---5-3----|--5-7---------|--6-6-5-3-|-----------|
A:|-3--------|------3-5-----|----------|-----------|
E:|----------|--------------|----------|---4--4-6--|

 Comments (click here to add a non-facebook comment)
Home | FAQs | Privacy | Terms | Contact
Top 100 Tab Sites