Give Kudos?
Are you sure you want to give kudos to 6string?

Add To Songbook?
Are you sure you want to add this song to your songbook?


466 bands | 1,714 songs
Search: Register FREE! | Login
Browse Songs:
Browse Bands:
Tool Panel
Discuss This Song

1 2 3 4 5





AC/DC - Back In Black (Solo)
Album: Back In Black (1980)
Submitter: 6string (2) on 8/25/03
Month Views: 30 | Total Views: 6,436
Moderator: jackshaw3 | Report This Song?
Song Tools

Comment

Songbook

Kudos

Show Chords

Print

Back In Black
As recorded by AC/DC
(From the 1980 album, Back In Black)


Transcribed by prusche

 

D
x x 0 2 3 2
A
x 0 2 2 2 x 
E
0 2 2 1 0 0 
B
x 2 4 4 4 x 
G5
3 x 0 0 3 x 
E5
0 2 2 x x x 
D/E
0 5 x x x x 
A/E
0 4 x x x x 
A5
x 0 2 2 x x 


 
Gtr II (E A D G B E) -

 Guitar Solo
  &
  E5     D/E        A/E          E5
  Gtr II
  q    E S S q    E S S   q    E S S E   S S E     S S
  |      | | |      | |   |      | | |   | | |     | |
  /      / / /      / /   /      / / /   / / /     / /

  Gtr I
    ~~         ~~           ~~
                                             |-3-|
  E Q.       E Q.         E Q.       S S S S S S S S S
|-----------------------|------------------------------|
|-----------------------|------------------------------|
|-----------------------|----------------0-2-3p2p0-2---|
|-----------------------|------------x-2-------------2-|
|---7----------5--------|---4--------------------------|
|-0----------0----------|-0----------------------------|


         D/E        A/E          E5A5     E5     A5
  q    E S S q    E S S   q    E E E.     S +E   E
  |      | | |      | |   |      | |      |  |   |
  /      / / /      / /   /      / /      /  /   /

    ~~         ~~           ~~
  E Q.       E Q.         E Q.     S  S S S  S S S S
|-----------------------|-----------------------------|
|-----------------------|-----------------------------|
|-----------------------|-------------7---7----7---7--|
|-----------------------|----------x------------------|
|-x-7----------5--------|---4-------------------------|
|------------0----------|-0---------------------------|


  E5            D/E                A/E                           E5
  q         E   S S q            E S S   q               E       S S E S S E        S  S
  |             | | |              | |   |                       | | | | | |        |  |
  /             / / /              / /   /                       / / / / / /        /  /

            ~~~~                 ~~                                  ~
  S    +E. +Q      S   S S   S  Q       S S  T  T  T T  S S     S S Q     S  S     S  S
|-------------------------------------|-------------------------------------------------|
|----------------------8--------------|---8-10h11p10p8-10-8b8.5-------------------------|
|-7b9==(7)-(7)r----7b9---7b9---/9-----|-9-----------------------9---9-----x-12b13----12-|
|-------------------------------------|---------------------------9---------------14----|
|----------------------------0--------|-------------------------------------------------|
|-------------------------------------|-------------------------------------------------|


                        D/E                            A/E
   q                 E  S S   q                     E  S  S
   |                    | |   |                        |  |
   /                    / /   /                        /  /

                                                    ~~~
                                      |----3-----|
   E     S   S      +Q       +S    S  S     +S   S  E.    S
|--------------------------------------------------------------|
|-------15-(15)----(15)-----(15)--15---------------------------|
|-14b16-----14b16==(14)-----(14)r----14b16r(14)p12-14----(0)---|
|--------------------------------------------------------------|
|--------------------------------------------------------------|
|--------------------------------------------------------------|


                   E5       A5       E5          A5
  q           E     E        E.       S      +E    E
  |                 |        |        |       |    |
  /                 /        /        /       /    /

  S  S  S  S  S  S  S  S  a  E     S  S      +E    E
|-------------------------------------------------------|
|---------------------------------15--------------------|
|---12-------12----14-12-12h14b16----14b16==(14)-(14)r\-|
|-x-12h14-14----14--------------------------------------|
|-------------------------------------------------------|
|-------------------------------------------------------|


  E5                         D/E                             A/E
   q              E          S  S     q              E        S    S
   |                         |  |     |                       |    |
   /                         /  /     /                       /    /

                                      ~~~~~
                                            |--3--|  |--3--|
   S     S  S  S  S     E       S     E     S  S  S  S  S  S  E
|----------12-12---------------------------12-------------------------|
|-------12-------15b17-15b17---15b17-15b17----15p12----12-------------|
|-14b16---------------------------------------------14----12-14b16----|
|---------------------------------------------------------------------|
|---------------------------------------------------------------------|
|---------------------------------------------------------------------|


                               E5
    q                E          S  S  E     S S   E     S  S
    |                           |  |  |     | |   |     |  |
    /                           /  /  /     / /   /     /  /

                                         ~~~~~~~~~~~~~
                     |---3---|
    S    E       S   S  +S   S  S  S  S  E.      +E     S  S
|------------------------------------------------------------|
|--15-----------15-------------------------------------------|
|-(14)r-14b16==(14)-14r(14)p12-14----12-14------(14)\--------|
|---------------------------------14------------------/14-14-|
|------------------------------------------------------------|
|------------------------------------------------------------|


                        D/E                                  A/E
   q           E          S    S    q                    E   S  S
   |                      |    |    |                        |  |
   /                      /    /    /                        /  /

                                    |----3-----|
   S  S  S  S  S  S      +S    S    S     +S   S  S  S  +E   S  S
|------------------------------------------------------------------|
|-12----14--------------------15---15----(15)----------------------|
|-12----14----12h14b16==(14)-(14)r-14b16r(14)p12-14----------x-----|
|----14----14------------------------------------14-14-(14)\-x-14--|
|------------------------------------------------------------------|
|------------------------------------------------------------------|


                 E5A5              E5       A5
  q          E   E  E.             S    +E  E
  |              |  |              |     |  |
  /              /  /              /     /  /

             ~~~~~
                    |--------6--------|
  E  E      +Q      S   S  S  S  S    S  E  S S
|------------------12---------------------------|
|---15b17==(15)r-------15p12----12--------------|
|----------------------------14------12-----2p0-|
|-x-------------------------------------14\-----|
|-x---------------------------------------------|
|-----------------------------------------------|


  E5           D/E             A/E                 E5
  q         E  S S q        E  S S   q          E  S S   E     S  S      E   S  S
  |            | | |           | |   |             | |   |     |  |      |   |  |
  /            / / /           / /   /             / /   /     /  /      /   /  /

            ~~~          ~~~~~~                 ~~~
  S  S S S +Q      S S S S +Q      S  S  S S +Q        S  S  S  S      E   S  S
|------------------0-----0-------|-0-(0)-0-0----------------12------------------|
|-0----3-5-(5)-----3s2-3-3-(3)---|-2p=0--2-2-(2)---------12----15b17==15r-15\-0-|
|---/4---------------------------|-------------------/14----------------------0-|
|--------------------------------|--------------------------
 Comments (click here to add a non-facebook comment)
Home | FAQs | Privacy | Terms | Contact
Top 100 Tab Sites