Give Kudos?
Are you sure you want to give kudos to miguitarist?

Add To Songbook?
Are you sure you want to add this song to your songbook?


466 bands | 1,714 songs
Search: Register FREE! | Login
Browse Songs:
Browse Bands:
Tool Panel
Discuss This Song

1 2 3 4 5





AC/DC - Back In Black (Tab)
Album: Back In Black (1980)
Submitter: miguitarist (1) on 9/24/04 1 comment
Month Views: 38 | Total Views: 9,009
Moderator: jackshaw3 | Report This Song?
Song Tools

Comment

Songbook

Kudos

Show Chords

Print

Back In Black                             



                                                                        
E||-------x---------x----|-------x------------|------------------------|
B||-------x---------x----|-------x------------|---------3-3-3----------|
G||--x----x----x----x----|--x----x------------|---------2-2-2------2-2-|
D||--x---------x---------|--x-----------------|--2------0-0-0------2-2-|
A||--x---------x---------|--x-----------------|--2-----------------0-0-|
E||----------------------|--------------------|--0---------------------|


                                                                               
------------3-0----------|------------------------|---------------------------|
----------------3-0------|---------3-3-3----------|---------------------------|
--2-----------------2r-0-|---------2-2-2------2-2-|--2------------------------|
--2----------------------|--2------0-0-0------2-2-|--2------------------------|
--0----------------------|--2-----------------0-0-|--0----2----2----2----2----|
-------------------------|--0---------------------|---------4----5----6----7/-|


                                                                            
------------------------|------------3-0----------|------------------------|
---------3-3-3----------|----------------3-0------|---------3-3-3----------|
---------2-2-2------2-2-|--2-----------------2r-0-|---------2-2-2------2-2-|
--2------0-0-0------2-2-|--2----------------------|--2------0-0-0------2-2-|
--2-----------------0-0-|--0----------------------|--2-----------------0-0-|
--0---------------------|-------------------------|--0---------------------|


                                                                               
---------------------------|------------------------|------------3-0----------|
---------------------------|---------3-3-3----------|----------------3-0------|
--2------------------------|---------2-2-2------2-2-|--2-----------------2r-0-|
--2------------------------|--2------0-0-0------2-2-|--2----------------------|
--0----2----2----2----2----|--2-----------------0-0-|--0----------------------|
---------4----5----6----7/-|--0---------------------|-------------------------|


                                                                              
------------------------|---------------------------|------------------------|
---------3-3-3----------|---------------------------|---------3-3-3----------|
---------2-2-2------2-2-|--2------------------------|---------2-2-2------2-2-|
--2------0-0-0------2-2-|--2------------------------|--2------0-0-0------2-2-|
--2-----------------0-0-|--0----2----2----2----2----|--2-----------------0-0-|
--0---------------------|---------4----5----6----7/-|--0---------------------|


                                                                               
------------3-0----------|------------------------|---------------------------|
----------------3-0------|---------3-3-3----------|---------------------------|
--2-----------------2r-0-|---------2-2-2------2-2-|--2------------------------|
--2----------------------|--2------0-0-0------2-2-|--2------------------------|
--0----------------------|--2-----------------0-0-|--0----2----2----2----2----|
-------------------------|--0---------------------|---------4----5----6----7/-|


                                                                         
-----------------------|-----------------------|----3---2---------------|
-----------------------|-----------------------|----3---3---------------|
----2-------4---2---4--|----2-------4---2---4--|----0---2---2--------2--|
----2---2---4---2---4--|----2---2---4---2---4--|----0---0---2--------2--|
----0---2---2---0---2--|----0---2---2---0---2--|----x-------0--------0--|
--------0--------------|--------0--------------|----3-----------3-3b----|


                                                                         
----3---2---------------|-----------------------|-----------------------|
----3---3---------------|-----------------------|-----------------------|
----0---2---2--------2--|----2-------4---2---4--|----2-------4---2---4--|
----0---0---2--------2--|----2---2---4---2---4--|----2---2---4---2---4--|
----x-------0--------0--|----0---2---2---0---2--|----0---2---2---0---2--|
----3-----------3-3b----|--------0--------------|--------0--------------|


                                                                          
--3---3---3---3-3-3-3--3--|--2---2---2----------|------------------------|
--3---3---3---3-3-3-3--3--|--3---3---3----------|---------3-3-3----------|
--0---0---0---0-0-0-0--0--|--2---2---2----------|---------2-2-2------2-2-|
--0---0---0---0-0-0-0--0--|--0---0---0----------|--2------0-0-0------2-2-|
--x---x---x---x-x-x-x--x--|---------------------|--2-----------------0-0-|
--3---3---3---3-3-3-3--3--|---------------------|--0---------------------|


                                                                               
------------3-0----------|------------------------|---------------------------|
----------------3-0------|---------3-3-3----------|---------------------------|
--2-----------------2r-0-|---------2-2-2------2-2-|--2------------------------|
--2----------------------|--2------0-0-0------2-2-|--2------------------------|
--0----------------------|--2-----------------0-0-|--0----2----2----2----2----|
-------------------------|--0---------------------|---------4----5----6----7/-|


                                                                            
------------------------|------------3-0----------|------------------------|
---------3-3-3----------|----------------3-0------|---------3-3-3----------|
---------2-2-2------2-2-|--2-----------------2r-0-|---------2-2-2------2-2-|
--2------0-0-0------2-2-|--2----------------------|--2------0-0-0------2-2-|
--2-----------------0-0-|--0----------------------|--2-----------------0-0-|
--0---------------------|-------------------------|--0---------------------|


                                                                            
---------------------------|-----------------------|-----------------------|
---------------------------|-----------------------|-----------------------|
--2------------------------|----2-------4---2---4--|----2-------4---2---4--|
--2------------------------|----2---2---4---2---4--|----2---2---4---2---4--|
--0----2----2----2----2----|----0---2---2---0---2--|----0---2---2---0---2--|
---------4----5----6----7/-|--------0--------------|--------0--------------|


                                                                          
----3---2---------------|----3---2---------------|-----------------------|
----3---3---------------|----3---3---------------|-----------------------|
----0---2---2--------2--|----0---2---2--------2--|----2-------4---2---4--|
----0---0---2--------2--|----0---0---2--------2--|----2---2---4---2---4--|
----x-------0--------0--|----x-------0--------0--|----0---2---2---0---2--|
----3-----------3-3b----|----3-----------3-3b----|--------0--------------|


                                                                         
-----------------------|--3---3---3---3-3-3-3--3--|--2---2---2----------|
-----------------------|--3---3---3---3-3-3-3--3--|--3---3---3----------|
----2-------4---2---4--|--0---0---0---0-0-0-0--0--|--2---2---2----------|
----2---2---4---2---4--|--0---0---0---0-0-0-0--0--|--0---0---0----------|
----0---2---2---0---2--|--x---x---x---x-x-x-x--x--|---------------------|
--------0--------------|--3---3---3---3-3-3-3--3--|---------------------|


                                                                              
------------------------|---------------------------|------------------------|
------------------------|---------------------------|------------------------|
------------------------|
 Comments (click here to add a non-facebook comment)
this is a reely good tab from what i read of it i had one
before that was not that good and i tabbed one that was
close but i lost it and am tooo lazy to tab it again
-guitarnik | 3/8/2005
Home | FAQs | Privacy | Terms | Contact
Top 100 Tab Sites