Give Kudos?
Are you sure you want to give kudos to driller?

Add To Songbook?
Are you sure you want to add this song to your songbook?


466 bands | 1,714 songs
Search: Register FREE! | Login
Browse Songs:
Browse Bands:
Tool Panel
Discuss This Song

1 2 3 4 5





AC/DC - Big Balls (Bass)
Album: Dirty Deeds Done Dirt Cheap (1976)
Submitter: driller (9) on 9/27/03
Month Views: 31 | Total Views: 3,403
Moderator: jackshaw3 | Report This Song?
Song Tools

Comment

Songbook

Kudos

Show Chords

Print

---------------------------------------------------------
---------------------------------------------------------
--7\--3/--7\--3/--7\--3/--7\--3/--5---7-7-7-7-7-
---------------------------------------------------------
verse
---------------------------------------------------------
---------------------------------------------------------
--3---3---3---3---3---3---3---3---3-----------------
---------------------------------------------------------
chorus
---------------------------------------------------------
---------------------------------------------------------
--5--5--5--5\3-7--7--7--7\3--5--5--5--5\3--7--7--7\
---------------------------------------------------------

---------------------------------------------------------
---------------------------------------------------------
--3/-5--5--5/-7--7--7\-5--5--5\-0--3-------------
---------------------------------------------------------
 Comments (click here to add a non-facebook comment)
Home | FAQs | Privacy | Terms | Contact
Top 100 Tab Sites