Give Kudos?
Are you sure you want to give kudos to EMRLDEYZS?

Add To Songbook?
Are you sure you want to add this song to your songbook?


466 bands | 1,714 songs
Search: Register FREE! | Login
Browse Songs:
Browse Bands:
Tool Panel
Discuss This Song

1 2 3 4 5





AC/DC - Heatseeker (Tab)
Album: Blow Up Your Video (1988)
Submitter: EMRLDEYZS (140) on 3/4/04
Month Views: 31 | Total Views: 5,037
Moderator: jackshaw3 | Report This Song?
Song Tools

Comment

Songbook

Kudos

Show Chords

Print

 



Gtr I
|-----------|-------------------|-----------------|-------------------|
|-------x---|------5------------|-----5-----------|-----5-5--5--5-----|
|-------x-4-|-(4)--4--4--4--4-2h|==4--4-4--4--4-2h|==4--4-4--4--4-0h==|
|-------x-4-|-(4)--2--2--2--2-2-|-(2)---2--2--2-2-|-(2)---2--2--2-----|
|-------x-2-|-(2)-(2)-----------|-----------------|-------------------|
|-----------|-------------------|-----------------|-------------------|


                  B5
|---0----0--0---|----------|------------|------------|--------|
|---0----0--0---|----------|------------|------------|--------|
|-1------1--1---|-4--------|-(4)--------|-(4)--------|-(4)----|
|-----x-------0-|-4--------|-(4)--------|-(4)--------|-(4)----|
|-----x-------0-|-2--------|-(2)--------|-(2)--------|-(2)----|
|---------------|----------|------------|------------|--------|


|-----------------------|-------------------|
|-----------------------|-------------------|
|---4-(4)-4-(4)-4-4-(4)-|-4-4-4-4-4-(4)-4-4-|
|---2h=4--4-(4)-4-2h=4--|-4-4-4-4-2h=4--4-4-|
|-2----------2----------|-2-----------------|
|-----------------------|-------------------|


|-------------------------|--------------------|
|-------------------------|--------------------|
|-(4)-4-(4)-4-(4)-4-4-(4)-|-4-4-4-4-4-(4)-4-4--|
|-(4)-2h=4--4-(4)-4-2h=4--|-4-4-4-4-2h=4--4-4--|
|--2-----------2----------|-2------------------|
|-------------------------|--------------------|


  B
  Gtr II
  Gtr I
|-----------------------|-------------------|
|-----------------------|-------------------|
|---4-(4)-4-(4)-4-4-(4)-|-4-4-4-4-4-(4)-4-4-|
|---2h=4--4-(4)-4-2h=4--|-4-4-4-4-2h=4--4-4-|
|-2----------2----------|-2-----------------|
|-----------------------|-------------------|


  
|-------------------------|--------------------|
|-------------------------|--------------------|
|-(4)-4-(4)-4-(4)-4-4-(4)-|-4-4-4-4-4-(4)-4-4--|
|-(4)-2h=4--4-(4)-4-2h=4--|-4-4-4-4-2h=4--4-4--|
|--2-----------2----------|-2------------------|
|-------------------------|--------------------|


  A   B      E                       A   Bsus4  E
|-5-------------|------------------|-5-------------|-------------------|
|-5---4-(4)--9--|-(9)-9-9--9-9-9-9-|-5---5-(5)--9--|-(9)-9-9--9-9-9-9--|
|-2---4-(4)--9--|-(9)-9-9--9-9-9-9-|-2---4-(4)--9--|-(9)-9-9--9-9-9-9--|
|-2---4-(4)--9--|-(9)-9-9--9-9-9-9-|-2---4-(4)--9--|-(9)-9-9--9-9-9-9--|
|-0---2-(2)--7--|-(7)-7-7--7-7-7-7-|-0---2-(2)--7--|-(7)-7-7--7-7-7-7--|
|------------0--|-(0)-0-0--0-0-0-0-|------------0--|-(0)-0-0--0-0-0-0--|


  B
  Gtr II
  Gtr I
|-----------------------|-------------------|
|-----------------------|-------------------|
|---4-(4)-4-(4)-4-4-(4)-|-4-4-4-4-4-(4)-4-4-|
|---2h=4--4-(4)-4-2h=4--|-4-4-4-4-2h=4--4-4-|
|-2----------2----------|-2-----------------|
|-----------------------|-------------------|


|-------------------------|--------------------||
|-------------------------|--------------------||
|-(4)-4-(4)-4-(4)-4-4-(4)-|-4-4-4-4-4-(4)-4-4--||
|-(4)-2h=4--4-(4)-4-2h=4--|-4-4-4-4-2h=4--4-4--||
|--2-----------2----------|-2------------------||
|-------------------------|--------------------||


   Verse
    E5
||------------------|-----------------|-----------------|-----------------|
||o-----------------|-----------------|-----------------|-----------------|
||--4-----4-----4---|---6-----4-------|-4-----4-----4---|---6-----4-------|
||--2-2-2-2-2-2-2-2-|-2-2-2-2-2-2-2-2-|-2-2-2-2-2-2-2-2-|-2-2-2-2-2-2-2-2-|
||o-----------------|-----------------|-----------------|-----------------|
||------------------|-----------------|-----------------|-----------------|


|-----------------|-----------------|-----------------|------------------|
|-----------------|-----------------|-----------------|------------------|
|-4-----4-----4---|---6-----4-------|-4-----4-----4---|---6-----4--------|
|-2-2-2-2-2-2-2-2-|-2-2-2-2-2-2-2-2-|-2-2-2-2-2-2-2-2-|-2-2-2-2-2-2-2-2--|
|-----------------|-----------------|-----------------|------------------|
|-----------------|-----------------|-----------------|------------------|


  A   B      E                       A   Bsus4  E
|-5-------------|------------------|-5-------------|-------------------|
|-5---4-(4)--9--|-(9)-9-9--9-9-9-9-|-5---5-(5)--9--|-(9)-9-9--9-9-9-9--|
|-2---4-(4)--9--|-(9)-9-9--9-9-9-9-|-2---4-(4)--9--|-(9)-9-9--9-9-9-9--|
|-2---4-(4)--9--|-(9)-9-9--9-9-9-9-|-2---4-(4)--9--|-(9)-9-9--9-9-9-9--|
|-0---2-(2)--7--|-(7)-7-7--7-7-7-7-|-0---2-(2)--7--|-(7)-7-7--7-7-7-7--|
|------------0--|-(0)-0-0--0-0-0-0-|------------0--|-(0)-0-0--0-0-0-0--|


  A   B      E                       A   Bsus4  E
|-5-------------|------------------|-5-------------|-------------------|
|-5---4-(4)--9--|-(9)-9-9--9-9-9-9-|-5---5-(5)--9--|-(9)-9-9--9-9-9-9--|
|-2---4-(4)--9--|-(9)-9-9--9-9-9-9-|-2---4-(4)--9--|-(9)-9-9--9-9-9-9--|
|-2---4-(4)--9--|-(9)-9-9--9-9-9-9-|-2---4-(4)--9--|-(9)-9-9--9-9-9-9--|
|-0---2-(2)--7--|-(7)-7-7--7-7-7-7-|-0---2-(2)--7--|-(7)-7-7--7-7-7-7--|
|------------0--|-(0)-0-0--0-0-0-0-|------------0--|-(0)-0-0--0-0-0-0--|


  B
  Gtr II
  
  Gtr I
|-----------------------|-------------------|
|-----------------------|-------------------|
|---4-(4)-4-(4)-4-4-(4)-|-4-4-4-4-4-(4)-4-4-|
|---2h=4--4-(4)-4-2h=4--|-4-4-4-4-2h=4--4-4-|
|-2----------2----------|-2-----------------|
|-----------------------|-------------------|


   
|-------------------------|--------------------||
|-------------------------|--------------------||
|-(4)-4-(4)-4-(4)-4-4-(4)-|-4-4-4-4-4-(4)-4-4--||
|-(4)-2h=4--4-(4)-4-2h=4--|-4-4-4-4-2h=4--4-4--||
|--2-----------2----------|-2------------------||
|-------------------------|--------------------||


 Chorus
  $
                                        C5 D5          B5 C5 D5
|-----------------------|-------------------|-----------------|
|-----------------------|-------------------|-----------------|
|---4-(4)-4-(4)-4-4-(4)-|-4-4-4-4-4-(4)-5-7-|-(7)--7--7-4-5-7-|
|---2h=4--4-(4)-4-2h=4--|-4-4-4-4-2h=4--5-7-|-(7)--7--7-4-5-7-|
|-2----------2----------|-2-------------3-5-|-(5)--5--5-2-3-5-|
|-----------------------|-------------------|-----------------|


           B5 C5 D5    B5 C5 D5  B5 C5 D5
|-----------------|---------------------|
|-----------------|---------------------|
|-(7)--7--7-4-5-7-|-(7)-4-5-7-(7)-4-5-7-|
|-(7)--7--7-4-5-7-|-(7)-4-5-7-(7)-4-5-7-|
|-(5)--5--5-2-3-5-|-(5)-2-3-5-(5)-2-3-5-|
|-----------------|---------------------|


              To Coda
      B5 A5        B5  E5
|--------------------|------------------------|
|--------------------|------------------------|
|-(7)--4-2-(2)-2-2-4-|---4-(4)-4-(4)-4-4-(4)--|
|-(7)--4-2-(2)-2-2-4-|---2h=4--4-(4)-4-2h=4---|
|-(5)--2-0-(0)-0-0-2-|-2----------2-----------|
|--------------------|------------------------|


                     1.
|-------------------|-------------------------|--------------------||
|-------------------|-------------------------|-------------------o||
|-4-4-4-4-4-(4)-4-4-|-(4)-4-(4)-4-(4)-4-4-(4)-|-4-4-4-4-4-(4)-4-4--||
|-4-4-4-4-2h=4--4-4-|-(4)-2h=4--4-(4)-4-2h=4--|-4-4-4-4-2h=4--4-4--||
|-2-----------------|--2-----------2----------|-2-----------------o||
|-------------------|-------------------------|--------------------||


  2.
  Gtr II
  Gtr I
|-----------------------|-------------------|
|-----------------------|-------------------|
|---4-(4)-4-(4)-4-4-(4)-|-4-4-4-4-4-(4)-4-4-|
|---2h=4--4-(4)-4-2h=4--|-4-4-4-4-2h=4--4-4-|
|-2----------2----------|-2-----------------|
|-----------------------|-------------------|


  E5                              C D5

|-------------------------|----------||
|-------------------------|----------||
|-(4)-4-(4)-4-(4)-4-4-(4)-|----------||
|-(4)-2h=4--4-(4)-4-2h=4--|----------||
|--2-----------2----------|----------||
|-------------------------|----------||


 Guitar Solo
  D5         B5    C#D5       
 Comments (click here to add a non-facebook comment)
Home | FAQs | Privacy | Terms | Contact
Top 100 Tab Sites