Give Kudos?
Are you sure you want to give kudos to miguitarist?

Add To Songbook?
Are you sure you want to add this song to your songbook?


466 bands | 1,714 songs
Search: Register FREE! | Login
Browse Songs:
Browse Bands:
Tool Panel
Discuss This Song

1 2 3 4 5





AC/DC - Hells Bells (Tab)
Album: Back In Black (1980)
Submitter: miguitarist (1) on 9/24/04
Month Views: 39 | Total Views: 6,468
Moderator: jackshaw3 | Report This Song?
Song Tools

Comment

Songbook

Kudos

Show Chords

Print

Hells Bells                                   


AC/DC




                                                                               
E||-------------------------|------------------------|------------------------|
B||-------------------------|------------------------|------------------------|
G||-----9-----7----------5--|----------7-------------|----9-----7----------5--|
D||--------7-------7--------|----5----------7--------|-------7-------7--------|
A||--0----------------0-----|-------0----------0--0--|------------------0-----|
E||-------------------------|------------------------|------------------------|


                                                                           
------------------------|------------------------|------------------------|
------------------------|------------------------|------------------------|
----------7-------------|----9-----7----------5--|----------7-------------|
----5----------5--5-----|-------7-------7--------|----5----------7--------|
-------0-------3--2--0--|------------------0-----|-------0----------0--0--|
------------------------|------------------------|------------------------|


                                                                           
------------------------|------------------------|------------------------|
------------------------|------------------------|------------------------|
----9-----7----------5--|----------7-------------|----9-----7----------5--|
-------7-------7--------|----5----------5--5-----|-------7-------7--------|
------------------0-----|-------0-------3--2--0--|------------------0-----|
------------------------|------------------------|------------------------|


                                                                           
------------------------|------------------------|------------------------|
------------------------|------------------------|------------------------|
----------7-------------|----9-----7----------5--|----------7-------------|
----5----------7--------|-------7-------7--------|----5----------5--5-----|
-------0----------0--0--|------------------0-----|-------0-------3--2--0--|
------------------------|------------------------|------------------------|


                                                                           
------------------------|------------------------|------------------------|
------------------------|------------------------|------------------------|
----9-----7----------5--|----------7-------------|----9-----7----------5--|
-------7-------7--------|----5----------7--------|-------7-------7--------|
------------------0-----|-------0----------0--0--|------------------0-----|
------------------------|------------------------|------------------------|


                                                                           
------------------------|------------------------|------------------------|
------------------------|------------------------|------------------------|
----------7-------------|----9-----7----------5--|----------7-------------|
----5----------5--5-----|-------7-------7--------|----5----------7--------|
-------0-------3--2--0--|------------------0-----|-------0----------0--0--|
------------------------|------------------------|------------------------|


                                                                           
------------------------|------------------------|------------------------|
------------------------|------------------------|------------------------|
----9-----7----------5--|----------7-------------|----9-----7----------5--|
-------7-------7--------|----5----------5--5-----|-------7-------7--------|
------------------0-----|-------0-------3--2--0--|------------------0-----|
------------------------|------------------------|------------------------|


                                                                           
------------------------|------------------------|------------------------|
------------------------|---------------------3--|----3-----3-------------|
----------7-------------|----9-----7----------0--|----0-----2-------------|
----5----------7--------|-------7-------7-----0--|----0--0--0-------------|
-------0----------0--0--|------------------0--x--|----x--0-------3b-2--0--|
------------------------|---------------------3--|----3-------------------|


                                                                         
------------------------|---------------------|-------------------------|
------------------------|---------------------|-------------------------|
----9--7--9----7--5--7--|---------------------|-----9--7--9----7--5--7--|
----7--7--7----7--5--7--|-----------5----5----|-----7--7--7----7--5--7--|
------------------------|--------0--3----2----|--0----------------------|
------------------------|---------------------|-------------------------|


                                                                        
---------------------|-------------------------|-----------------------|
---------------------|-------------------------|-----------------------|
---------------------|----------------7-----7--|-----------------------|
-----------5----5----|-----2--0--2----7--5--7--|-------------5----5----|
--------0--3----2----|--0--0--0--0----5--5--5--|----5--5--0--3----2----|
---------------------|-------------------------|-----------------------|


                                                                            
-------------------------|-----------------------|-------------------------|
-------------------------|-----------------------|-------------------------|
----------------7-----7--|-----------------------|----------------7-----7--|
-----2--0--2----7--5--7--|-------------5----5----|-----2--0--2----7--5--7--|
--0--0--0--0----5--5--5--|----5--5--0--3----2----|--0--0--0--0----5--5--5--|
-------------------------|-----------------------|-------------------------|


                                                                          
-----------------------|-------------------------|-----------------------|
-----------------------|-------------------------|-----------------------|
-----------------------|----------------7-----7--|-------7---------------|
-------------5----5----|-----2--0--2----7--5--7--|-------7-----5----5----|
----5--5--0--3----2----|--0--0--0--0----5--5--5--|----5--5--0--3----2----|
-----------------------|-------------------------|-----------------------|


                                                                            
-------------------------|-----------------------|-------------------------|
-----3-----3----3--3--3--|----3--3----------3----|--3--3--3--3----3--0--3--|
-----2--0--2----2--0--2--|----2--2--0--5----0----|--2--2--0--2----2--0--2--|
--0--0--0--0----0--0--0--|----0--0--0--5----0----|--0--0--0--0----0--0--0--|
-------------------------|-------------3----x----|-------------------------|
-------------------------|------------------3----|-------------------------|


                                                                          
-----------------------|-------------------------|-----------------------|
----3--3--0-------3----|-------------------------|-------------3---------|
----2--2--0--5----0----|-----9-----9----9-----9--|----9--9--0--2----2----|
----0--0--0--5----0----|-----9--7--9----9--7--9--|----9--9--0--0----2----|
-------------3----x----|-----7--7--7----7--7--7--|----7--7----------0----|
------------------3----|--0-----0----------0-----|-----------------------|


                                                                            
-------------------------|-----------------------|-------------------------|
-------------------------|-------------3----3----|-------------------------|
-----9-----9----9-----9--|----9--9--0--0----0----|-----9-----7----------5--|
-----9--7--9----9--7--9--
 Comments (click here to add a non-facebook comment)
Home | FAQs | Privacy | Terms | Contact
Top 100 Tab Sites