Give Kudos?
Are you sure you want to give kudos to SGRocker87?

Add To Songbook?
Are you sure you want to add this song to your songbook?


466 bands | 1,714 songs
Search: Register FREE! | Login
Browse Songs:
Browse Bands:
Tool Panel
Discuss This Song

1 2 3 4 5





AC/DC - Night Prowler (Tab)
Album: Highway To Hell (1979)
Submitter: SGRocker87 (0) on 9/17/04
Month Views: 25 | Total Views: 3,772
Moderator: jackshaw3 | Report This Song?
Song Tools

Comment

Songbook

Kudos

Show Chords

Print

 



Night Prowler by AC/DC (Scott/Young/Young) 'Highway to Hell' 1979
-------------                              Tab by SGRocker87

First: Tune down a half step!

  (Malcolm) Intro
    A5      D5        Csus2    D5      A5    D5    Csus2  D5
e|--------------------------------|----------------------------|--------------|
b|----------3---------3--------3--|----------3-----3------3----|--------------|
g|--2-------2---------0--------2--|----2-----2-----0------2----|--------------|
D|--2-------0------------------0--|----2-----0------------0----|--------------|
A|--0-----------------3-----------|----0-----------3-----------|--------0--3--|
E|--------------------------------|----------------------------|--0--3--------|

  ..Pattern1.........................endpattern.
 /  A5      D5      Csus2      D5               
e|--------------------------------|--------------|
b|----------3-------------3----3--|--------------|
g|--2-------2---------0-0------2--|--------------|
D|--2-------0------------------0--|--------------|
A|--0---------------3-------------|--------0--3--|
E|--------------------------------|--0--3--------|

  ..Pattern2.........................endpattern.
 /  A5      D5      Csus2      Dsus2            
e|-----------------------------0-----------------|
b|----------3-------3-3-3-3-3--3-----------------|
g|--2-------2-------0-0-0-0-0--2-----------------|
D|--2-------0------------------0-----------------|
A|--0---------------3-3-3-3-3--------------------|
E|-----------------------------------------------|

 (Angus w/pattern 1)
    b ~~~~~~~~~~~~~~~~~~~~~~~~~~~       r           b    ~~~~~~~~~~~   r
e|----------------------------------------------------------------------------|
b|-8-10----------------------------10-10--8-5---8-------10-----------10--8----|
g|--------------------------------------------------------------------------7-|
D|----------------------------------------------------------------------------|
A|----------------------------------------------------------------------------|
E|----------------------------------------------------------------------------|

      b     b   t                 r              t b      r
e|----------------------------------------------------------------|
b|----------------------------------------------------------------|
g|-7-----8----9--12-14----------9---7-----5-----12-14----8--7--5--|
D|----------------------------------------------------------------|
A|----------------------------------------------------------------|
E|----------------------------------------------------------------|
  (Angus w/pattern 2)
  t b        r            t b          r              b       b  r
e|---------------------------------------------------8-10---------------------|
b|----------------------------------------------5------------8-10---8--5------|
g|12-14----8---7------5---12-14------8-----7----5-----------------------------|
D|----------------------------------------------------------------------------|
A|----------------------------------------------------------------------------|
E|----------------------------------------------------------------------------|
 Pattern 3 (Verse)
   A5      D         G           D
e|----------------------------------|
b|-------------------0--------------| X 2
g|-------------------0-----------2--|
D|-2-------4---------0-----------4--|
A|-0-------5---------------------5--|
E|----------------------------------|
( rat runs down the alley...)  Pattern 4 (played 4 times)
   A5           D          G          D
e|----------------------------------------------------------------------------|
b|----------------------------------------------------------------------------|
g|-------------------------0--------------------------------------------------|
D|-2------2-----4----------0----------4---------------------------------------|
A|-0------0-----5---------------------5-------------0--3----------------------|
E|--------------------------------------------0--3----------------------------|

Play Chorus w/Pattern 1 (3 1/2 X)
(...you shut out the light...)

e|--------------------------------------|  Pattern 5
b|-3--3--3--3--3--3--3--3--3--3--3--3---|
g|-0--0--0--0--0--0--2--2--2--2--2--2---|
D|-------------------0--0--0--0--0--0---|
A|-3--3--3--3--3--3---------------------|
E|--------------------------------------|
  Solo w/fig.1 (Chorus-like)
    b~~~~~~~~~~~~   b b   b    r      ~~~~~~~ ~~~~~~~    b       b   r    b  ~~
e|----------------------------------------------------------------------------|
b|------------------------------------------------------8-9-----8-10-----9--10|
g|7--9-----------9-7-8-9-8-9-------7--5---------------------------------------|
D|-------------------------------------------7--------x-----------------------|
A|----------------------------------------------------------------------------|
E|----------------------------------------------------------------------------|
~~~~~~         b      b       b       b       b    b   r   b ~~~~~~
e|----------------------------------------------------------------------------|
b|----\-/7----------------------------------------------------------------10--|
g|-----------5--6-7--5--6-7--5--6-7--5--6-7--5--6-7--9---7---9-----\---------9|
D|--------------------------------------------------------------------2-/-----|
A|----------------------------------------------------------------------------|
E|----------------------------------------------------------------------------|
      b    b           ~~~~~~~~        |   b           (| end w/Pattern 5)
e|0---------------------------------------------------------------------------|
b|---7-8--8-10----10--10--------10\------13-15------15-----15-----------------|
g|----------------------------------------------------------------------------|
D|----------------------------------------------------------------------------|
A|----------------------------------------------------------------------------|
E|----------------------------------------------------------------------------|
Pattern 6 (for Verse 2) 4 x
   A5             A6                 A7(no 3rd)       A6
e|----------------------------------------------------------------------------|
b|----------------------------------------------------------------------------|
g|----------------------------------------------------------------------------|
D|-2---2--2---2---4-----4--4-----4---5-----5--5-----5--4----------------------|
A|-0---0--0---0---0-----0--0-----0---0-----0--0-----0--0----------0----3------|
E|----------------------------------------------------------0--3--------------|
Solo: w/patt.1
     b ~~~~~~~~~~~   r  b r  b r  b r b r b r  b ~~~~~~~~~~               b ~~~
e|-----------------------------------------------------------5----------------|
b|--------------------------------------------------------------5-------8--10-|
g|--7--9-----------9--8--9-8--9--8-9-8-9-8-9--8--9----------------------------|
D|----------------------------------------------------------------------------|
A|----------------------------------------------------------------------------|
E|----------------------------------------------------------------------------|
~~~~     b                           ~~~~~~~~  b     ~~~~~  r b r b  r b r b
e|------8-10--------8-5--3-5-0-3----------------------------------------------|
b|--\----------------------------3-5------------------------------------------|
g|-----------------------------------5-------7--9----------9-7-9-7--9-7-9-7-9-|
D|----------------------------------------------------------------------------|
A|----------------------------------------------------------------------------|
E|----------------------------------------------------------------------------|
          ~~~~        ~~      ~~~    ~~~~       ~~~~
e|-----------------------------------------------------------------|
b|--------------
 Comments (click here to add a non-facebook comment)
Home | FAQs | Privacy | Terms | Contact
Top 100 Tab Sites