Give Kudos?
Are you sure you want to give kudos to EMRLDEYZS?

Add To Songbook?
Are you sure you want to add this song to your songbook?


466 bands | 1,714 songs
Search: Register FREE! | Login
Browse Songs:
Browse Bands:
Tool Panel
Discuss This Song

1 2 3 4 5





AC/DC - Shoot To Thrill (Tab)
Album: Back In Black (1980)
Submitter: EMRLDEYZS (169) on 11/2/04
Month Views: 20 | Total Views: 5,713
Moderator: jackshaw3 | Report This Song?
Song Tools

Comment

Songbook

Kudos

Show Chords

Print

Standard Tuning 

Intro
 
      A5C   A                                             A5C   A
 4/4           2/4      4/4
  Gtr I
|-------------|--------|------------|------------|----------------|
|-------------|--------|------------|------------|----------------|
|-----------2-|-(2)----|-(2)--------|-(2)--------|-(2)----------2-|
|-----2-2---2-|-(2)----|-(2)--------|-(2)--------|-(2)----2-2---2-|
|-----0-3-4-0-|-(0)----|-(0)--------|-(0)--------|-(0)----0-3-4-0-|
|-------------|--------|------------|------------|----------------|


  G5      D5/A  G5        D5/A  AsusA5   G5      D5/A  G5        D5/A  AsusA5
  Gtr I
|-------------------|------------------|-------------------|-------------------|
|-------------------|------------------|-------------------|-------------------|
|-(2)---------------|-(2)--------------|-(2)---------------|-(2)-------------2-|
|-(2)---------------|-(2)--------------|-(2)---------------|-(2)-------2-2---2-|
|-(0)---------------|-(0)--------------|-(0)---------------|-(0)-------0-3-4-0-|
|-------------------|------------------|-------------------|-------------------|
|
| Gtr II
|     PM|   PM|   PM--|     PM|              PM|   PM|   PM--|     PM|
|--3------------3---|------------------|--3------------3---|-------------------|
|--3------3-----3---|-----3------------|--3------3-----3---|-----3-------------|
|--0------2-----0---|-----2-----2---2--|--0------2-----0---|-----2-----2---2---|
|--0------0-----0---|-----0-----0---2--|--0------0-----0---|-----0-----0---2---|
|--x--0-0-0-0-0-x-0-|--0--0-0-0-0-4-0--|--x--0-0-0-0-0-x-0-|--0--0-0-0-0-4-0---|
|--3------------3---|------------------|--3------------3---|-------------------|


  G5      D5/A  G5        D5/A  AsusA5   G5      D5/A  G5        D5/A  AsusA5
|-------------------|------------------|-------------------|-------------------|
|-------------------|------------------|-------------------|-------------------|
|-(2)---------------|-(2)--------------|-(2)---------------|-(2)-------------2-|
|-(2)---------------|-(2)--------------|-(2)---------------|-(2)-------2-2---2-|
|-(0)---------------|-(0)--------------|-(0)---------------|-(0)-------0-3-4-0-|
|-------------------|------------------|-------------------|-------------------|
|
|     PM|   PM|   PM--|     PM|              PM|   PM|   PM--|     PM|
|--3------------3---|------------------|--3------------3---|-------------------|
|--3------3-----3---|-----3------------|--3------3-----3---|-----3-------------|
|--0------2-----0---|-----2-----2---2--|--0------2-----0---|-----2-----2---2---|
|--0------0-----0---|-----0-----0---2--|--0------0-----0---|-----0-----0---2---|
|--x--0-0-0-0-0-x-0-|--0--0-0-0-0-4-0--|--x--0-0-0-0-0-x-0-|--0--0-0-0-0-4-0---|
|--3------------3---|------------------|--3------------3---|-------------------|


  G5      D5/A  G5        D5/A  AsusA5
|-------------------|-------------------|
|-------------------|-------------------|
|-(2)---------------|-(2)-------------2-|
|-(2)---------------|-(2)-------2-2---2-|
|-(0)---------------|-(0)-------0-3-4-0-|
|-------------------|-------------------|
|
|     PM|   PM|   PM--|     PM|
|--3------------3---|-------------------|
|--3------3-----3---|-----3-------------|
|--0------2-----0---|-----2-----2---2---|
|--0------0-----0---|-----0-----0---2---|
|--x--0-0-0-0-0-x-0-|--0--0-0-0-0-4-0---|
|--3------------3---|-------------------|


  G5      D5/A  G5        D5/A  AsusA5
|-------------------|-------------------|
|-------------------|-------------------|
|-(2)---------------|-(2)-------------2-|
|-(2)---------------|-(2)-------2-2---2-|
|-(0)---------------|-(0)-------0-3-4-0-|
|-------------------|-------------------|
|
|     PM|   PM|   PM--|     PM|
|--3------------3---|-------------------|
|--3------3-----3---|-----3-------------|
|--0------2-----0---|-----2-----2---2---|
|--0------0-----0---|-----0-----0---2---|
|--x--0-0-0-0-0-x-0-|--0--0-0-0-0-4-0---|
|--3------------3---|-------------------|


  G5    D5/A    G5        D5/A  A5C
|-3-------------3---|-(3)---------------|
|-3-----3-(3)---3---|-(3)-3-------------|
|-0-----2-(2)---0---|-(0)-2-------------|
|-0-----0-(0)---0---|-(0)-0-----2-2-----|
|-x-----0-(0)---x---|-----0-----0-3-4-0-|
|-3-------------3---|-(3)---------------|
|
|   PM|    PM-|   PM--|     PM|
|-3-------------3---|-------------------|
|-3-----3-------3---|-----3-------------|
|-0-----2-------0---|-----2-----2---2---|
|-0-----0-------0---|-----0-----0---2---|
|-x-0-0-0--0--0-x-0-|--0--0-0-0-0-4-0---|
|-3-------------3---|-------------------|


  A5    D5/A    G5        D5/A      A5
|---------------3---|-(3)--------------||
|-------3-(3)---3---|-(3)-3-----3------||
|-2-----2-(2)---0---|-(0)-2-----2---2--||
|-2-----0-(0)---0---|-(0)-0-----0---2--||
|-0-----0-(0)---x---|-----0-----0---0--||
|---------------3---|-(3)--------------||
|
|   PM|    PM-|   PM--|     PM|
|-3-------------3---|------------------||
|-3-----3-------3---|-----3------------||
|-0-----2-------0---|-----2-----2---2--||
|-0-----0-------0---|-----0-----0---2--||
|-x-0-0-0--0--0-x-0-|--0--0-0-0-0-4-0--||
|-3-------------3---|------------------||


   Verse
    G5(typD52)  G5(type D5    D5AA      G5(typD52)  G5(type D5    D5AA
||------------------|-----------------|-----------------|------------------|
||o-------3---------|---3-----3-2-2---|-------3---------|---3-----3-2-2----|
||--0-----2-----0---|---2-----2-2-2---|-0-----2-----0---|---2-----2-2-2----|
||--0-----0-----0---|---0-----0-2-2---|-0-----0-----0---|---0-----0-2-2----|
||o-x-----------x---|---------0-0-0-0-|-x-----------x---|---------0-0-0-0--|
||--3-----------3---|-----------------|-3-----------3---|------------------|
|
|     PM|   PM|   PM--|   PM|             PM|   PM|   PM--|   PM|
||--3-----------3---|-----------------|-3-----------3---|------------------|
||o-3-----3-----3---|---3-------------|-3-----3-----3---|---3--------------|
||--0-----2-----0---|---2-----2---2---|-0-----2-----0---|---2-----2---2----|
||--0-----0-----0---|---0-----0---2---|-0-----0-----0---|---0-----0---2----|
||o-x-0-0-0-0-0-x-0-|-0-0-0-0-0-4-0---|-x-0-0-0-0-0-x-0-|-0-0-0-0-0-4-0----|
||--3-----------3---|-----------------|-3-----------3---|------------------|


  G5(typD52)  G5(type D5    D5AA      G5(typD52)  G5(type D5    D5AA
|-----------------|-----------------|-----------------|-----------------||
|-------3---------|---3-----3-2-2---|-------3---------|---3-----3-2-2---||
|-0-----2-----0---|---2-----2-2-2---|-0-----2-----0---|---2-----2-2-2---||
|-0-----0-----0---|---0-----0-2-2---|-0-----0-----0---|---0-----0-2-2---||
|-x-----------x---|---------0-0-0-0-|-x-----------x---|---------0-0-0-0-||
|-3-----------3---|-----------------|-3-----------3---|-----------------||
|
|   PM|   PM|   PM--|   PM|             PM|   PM|   PM--|   PM|
|-3-----------3---|-----------------|-3-----------3---|-----------------||
|-3-----3-----3---|---3-------------|-3-----3-----3---|---3-------------||
|-0-----2-----0---|---2-----2---2---|-0-----2-----0---|---2-----2---2---||
|-0-----0-----0---|---0-----0---2---|-0-----0-----0---|---0-----0---2---||
|-x-0-0-0-0-0-x-0-|-0-0-0-0-0-4-0---|-x-0-0-0-0-0-x-0-|-0-0-0-0-0-4-0---||
|-3-----------3---|-----------------|-3-----------3---|-----------------||


 Pre Chorus
  C5   G5III   C5                        G5III   C5
  Gtrs I, II
|-----------------|---------------|-----------------|------------------------|
|-----------------|---------------|-----------------|------------------------|
|-5------------5--|-(5)-------5-5-|-5------------5--|-(5)-5-5--(5)-5-5-------|
|-5----5-(5)---5--|-(5)-------5-5-|-5----5-(5)---5--|-(5)-5-5--(5)-5-5-0-0---|
|-3----5-(5)---3--|-(3)-------3-3-|-3----5-(5)---3--|-(3)-3-3--(3)-3-3-0-0---|
|----0-3-(3)-0----|---------------|----0-3-(3)-0----|------------------------|


  D5V  A5V     D5V                    E7+9
|--------
 Comments (click here to add a non-facebook comment)
Home | FAQs | Privacy | Terms | Contact
Top 100 Tab Sites