Give Kudos?
Are you sure you want to give kudos to Rondo Fondu?

Add To Songbook?
Are you sure you want to add this song to your songbook?


466 bands | 1,714 songs
Search: Register FREE! | Login
Browse Songs:
Browse Bands:
Tool Panel
Discuss This Song

1 2 3 4 5





AC/DC - Thunderstruck (Bass)
Album: The Razors Edge (1990)
Submitter: Rondo Fondu (20) on 5/25/04
Month Views: 30 | Total Views: 4,089
Moderator: jackshaw3 | Report This Song?
Song Tools

Comment

Songbook

Kudos

Show Chords

Print

Thunderstruck (Bassline)
Words and Music by Angus Young & Malcolm Young


Gtr I - Bass

Standard Tuning

 Intro
  Moderate Rock Q=133
                  B5
 4/4
  Gtr I
  Wx21            E E E E E E E E   E E E E E E E E  8x
|-------------||------------------|------------------||
|-------------||o-----------------|-----------------o||
|-------------||o-2-2-2-2-2-2-2-2-|-2-2-2-2-2-2-2-2-o||
|-------------||------------------|------------------||


   Verse 1
    B5
    E E E E E E E E   E E E E E E E E 15x
||------------------|------------------||
||o-----------------|-----------------o||
||o-2-2-2-2-2-2-2-2-|-2-2-2-2-2-2-2-2-o||
||------------------|------------------||


   Verse 2
    B5
    E E E E E E E E   E E E E E E E E  8x
||------------------|------------------||
||o-----------------|-----------------o||
||o-2-2-2-2-2-2-2-2-|-2-2-2-2-2-2-2-2-o||
||------------------|------------------||


                 1.,2.,3.       4.
    B5 A5 E5              A5
    Q  Q  Q  Q    H.      Q   4x W
||--------------|-------------||------||
||o-------------|------------o||------||
||o-------------|------------o||------||
||--7--5--0-----|---------5---||------||


   Chorus
    $                        To Coda
    B5    A5    D5E5  A5    E5
    E E E E E E E E   E E E E E E E E  4x
||------------------|------------------||
||o-----------------|-----------------o||
||o-------------5---|-----------------o||
||--7-7-7-5-5-5---0-|-5-5-5-0-0-0-0-0--||


   Interlude
    B5
    E E E E E E E E   E E E E E E E E  4x
||------------------|------------------||
||o-----------------|-----------------o||
||o-2-2-2-2-2-2-2-2-|-2-2-2-2-2-2-2-2-o||
||------------------|------------------||


   Guitar Solo
    E5    B5      A5        E5
    E E E E E E E E   E E E E E E E E  4x
||------------------|------------------||
||o-----------------|-----------------o||
||o-------2-2-----0-|-0-0-0-----------o||
||--0-0-0-----0h2---|-------0-0-0-0-0--||


   Interlude
                        D.S. al Coda
    B5
    E E E E E E E E   E E E E E E E E  5x
||------------------|------------------||
||o-----------------|-----------------o||
||o-2-2-2-2-2-2-2-2-|-2-2-2-2-2-2-2-2-o||
||------------------|------------------||


   Bridge
    &
    B5            E5
    E E E E E E E E   E E E E E E E E  4x
||------------------|------------------||
||o-----------------|-----------------o||
||o-2-2-2-2-2-------|-----------------o||
||------------2h4-0-|-0-0-0-0-0-0-0-0--||


   Chorus with Guitar Solo
    B5    A5    D5E5  A5    E5
    E E E E E E E E   E E E E E E E E  8x
||------------------|------------------||
||o-----------------|-----------------o||
||o-------------5---|-----------------o||
||--7-7-7-5-5-5---0-|-5-5-5-0-0-0-0-0--||


 Outro
  H.=H
  B5
  W          +W
|----------|--------|
|----------|--------|
|----------|--------|
|-7--------|-(7)----|


                          Q=80
  B5                      B5
  W          +W           Q   H.
|----------|------------|-----------*|
|----------|------------|-----------*|
|----------|------------|-----------*|
|-7--------|-(7)--------|-7\--------*|


Duration Legend
---------------
W - whole; H - half; Q - quarter; E - 8th; S - 16th; T - 32nd; X - 
64th; a - acciaccatura
+ - note tied to previous; . - note dotted; .. - note double dotted
Uncapitalized letters represent notes that are staccato (1/2 duration)
Irregular groupings are notated above the duration line
Duration letters will always appear directly above the note/fret number 
it represents the
duration for.  Duration letters with no fret number below them represent rests.  
Multi-bar rests are notated in the form Wxn, 
where n is the number of bars to rest for.  Low
melody durations appear below the staff

Tablature Legend
----------------
 h   - hammer-on
 p   - pull-off
 b   - bend
 pb  - pre-bend
 r   - bend release (if no number after the r, then release immediately)
 /\  - slide into or out of (from/to "nowhere")
 s   - legato slide
 S   - shift slide
n>  - natural harmonic
[n]  - artificial harmonic
n(n) - tapped harmonic
 ~   - vibrato
 tr  - trill
 T   - tap
 TP  - trem. picking
 PM  - palm muting
\n/  - tremolo bar dip; n = amount to dip
 \n  - tremolo bar down
 n/  - tremolo bar up
/n\  - tremolo bar inverted dip
 =   - hold bend; also acts as connecting device for hammers/pulls
 >  - volume swell (louder/softer)
 x   - on rhythm slash represents muted slash
 o   - on rhythm slash represents single note slash

Misc Legend
-----------
 |  - bar
||  - double bar
||o - repeat start
o|| - repeat end
*|  - double bar (ending)
 :  - bar (freetime)
 $  - Segno
 &  - Coda
Tempo markers - E/E./Q/Q./H/H.> = BPM(8/16=s8/s16), where s8 = swing 8ths, s16 = swing 16ths

 Comments (click here to add a non-facebook comment)
Home | FAQs | Privacy | Terms | Contact
Top 100 Tab Sites