Give Kudos?
Are you sure you want to give kudos to bone187?

Add To Songbook?
Are you sure you want to add this song to your songbook?


466 bands | 1,715 songs
Search: Register FREE! | Login
Browse Songs:
Browse Bands:
Tool Panel
Discuss This Song

1 2 3 4 5





AC/DC - You Shook Me All Night Long (solo) Right One (Solo)
Album: Back In Black (1980)
Submitter: bone187 (0) on 1/18/05
Month Views: 19 | Total Views: 4,578
Moderator: jackshaw3 | Report This Song?
Song Tools

Comment

Songbook

Kudos

Show Chords

Print

(1/4)= Bend one quarter step
(1/2)= Bend one half step
(ful)= Bend one full step
r   = Release
h   = Hold
p/h = Pinch Harmonics
/   = Slide
~~~ = Tremelo





     hhhhhhhhh                                           p/h p/h      p/h   p/h  p/h               p/h
--------------3-------------------------------------------------------------------------------------------
----------------3---6-------------------------------------------------------------------------------------
---5(ful)-------------------5(1/2)r--3(1/4)---------------------------------------3(1/4)-----------3(1/4)-
--------------------------------------------5--5------5---3-------------------------------5-----5---------
-----------------------------------------------5--------------5----3----1---------------------------------
-----------------------------------------------------------------------------3----------------------------



                                                 hhhhhhhhhhhhhhhhh r     ~~~~~~~   p/h
-------------------------------------------------------10-------------------------------------------------
--------6---6------------8----8----------8-----10(ful)------10----(10)---8---------8------11(ful)-10(ful)-
---5/7-------------7/9--------------9---------------------------------------------------------------------
----------------------------------------------------------------------------------------------------------
----------------------------------------------------------------------------------------------------------
----------------------------------------------------------------------------------------------------------



                                             hhhhhhhhhhhhhh 
--------------------------------------------------------------15------------------------------------------
---8-----------8--------------------------18(ful)--------(18)------15----18---------------------------17--
--------9-----------------------------------------------------------------------17(ful)r---15---------17--
------------------------------------------------------------------------------------------------17--------
----------------------------------------------------------------------------------------------------------
----------------------------------------------------------------------------------------------------------


                             hhhhhhhhhhhhhhhhh
----------------------------------------------------------------------------------------------------------
---------------------18-----------18------------------------------------17---15---17---15\\\\-------------
---15------17(ful)---------17(ful)----17----(17)r-------15(1/4)---------17---15---17---15\\\\-------------
------------------------------------------------------------------17--------------------------------------
----------------------------------------------------------------------------------------------------------
----------------------------------------------------------------------------------------------------------



---------18(ful)---18(1/2)----17(1/2)r-17p15----17-----15--------------15---------------------------------
---15----------------------------------------------17---------18(ful)------18-----------------------------
--------------------------------------------------------------------------------17(ful)r-17p15--17\19-----
----------------------------------------------------------------------------------------------------------
----------------------------------------------------------------------------------------------------------
----------------------------------------------------------------------------------------------------------



                           ~~~~~~~~~                       ~~~~~~~~~~~~~~~~~~~~
------------15-------------15-----15--------17(1/2)r------15----------------------------------------------
---15\17-----------17-------------------------------------------------------------------------------------
----------------------------------------------------------------------------------------------------------
----------------------------------------------------------------------------------------------------------
----------------------------------------------------------------------------------------------------------
----------------------------------------------------------------------------------------------------------
 Comments (click here to add a non-facebook comment)
Home | FAQs | Privacy | Terms | Contact
Top 100 Tab Sites