Give Kudos?
Are you sure you want to give kudos to 6string?

Add To Songbook?
Are you sure you want to add this song to your songbook?


466 bands | 1,714 songs
Search: Register FREE! | Login
Browse Songs:
Browse Bands:
Tool Panel
Discuss This Song

1 2 3 4 5





AC/DC - You Shook Me All Night Long (Solo)
Album: Back In Black (1980)
Submitter: 6string (2) on 8/28/03 1 comment
Month Views: 30 | Total Views: 5,424
Moderator: jackshaw3 | Report This Song?
Song Tools

Comment

Songbook

Kudos

Show Chords

Print

You Shook Me All Night Long
As recorded by AC/DC
(From the 1980 album, Back In Black)


Transcribed by prusche

  

G5/D
x x 0 0 3 3 
Dsus4
x x 0 0 3 5 
D
x x 0 2 3 2 
G5
3 x 0 0 3 3 
Csus2
x 3 0 0 3 3 
G/B
x 2 0 0 3 3 
D/A
x 0 0 2 3 2 
G5III
3 5 5 x x x 
C5
x 3 5 x x x 
G/BII
x 2 5 x x x 


 
Gtr II (E A D G B E)  





 Guitar Solo
  G5III                C5             G/BII       G5III
  Gtr II
          ~~~~~~~~~
  Q      +Q   +H           E E E a    +E  +E  E E E
|------------------------|-3------------------------|
|------------------------|---3-6--------------------|
|-5b7====(5)--(5)r-------|-------5b7==(5)-(5)r5-3---|
|------------------------|------------------------5-|
|------------------------|--------------------------|
|------------------------|--------------------------|
|
 


                    C5         G/BII  G5III
       ~~~               ~~~
   E   Q.    E  E E E   +Q   E E Q  E E
|---------------------|-----------------|
|---------------------|----------3------|
|---------------------|----------3------|
|------5-----5--3-----|-------------5---|
|--5--(5)---------5-3-|-(3)-----------5-|
|---------------------|------6-3--------|
 


  G5             Csus2         G/B       D
  ~
  Q   E E E  E E E   +E  a E E E +E  E E  E
|------------------|----------------------------|
|--------------6-6-|-(6)-----8-8-(8)---8-10b12==|
|-----3-----/7-----|-----7s9---------9----------|
|-5----------------|----------------------------|
|------------------|----------------------------|
|------------------|----------------------------|
|
 


                     G5         Csus2                       G/B              G5
                                                               ~~~
   +E   E  E  +E  Q.      a      +E     +E    a      +E   E E  Q    E  a      +E
|------10----------------------------|--------------------------------------------|
|-(10)----10r(10)-8------11b13==(11)-|-(11)r-10b12==(10)r-8----8------18b20==(18)-|
|------------------------------------|----------------------9-------9-------------|
|------------------------------------|--------------------------------------------|
|------------------------------------|--------------------------------------------|
|------------------------------------|--------------------------------------------|
 

  G5                   Csus2                  G/B
    ~~~~
   +H       +E    E  E  E    a      +E   E  E  E  E   E  a      +Q
|----------------15-------|--------------------------------------------|
|-(18)-----(18)r----15-18-|----------------------17--------------------|
|-------------------------|-17b19==(17)r17-15----17--15-17b19==(17)r---|
|-------------------------|-------------------17-----------------------|
|-------------------------|--------------------------------------------|
|-------------------------|--------------------------------------------|
 

                 D                  Csus2          G/B
   E  a      +Q      E   E   +E   E  E    E   E  E  E  +Q      E  a      +E
|--------------------------------------|-------------------------18b20==(18)-|
|-18----------------18-----------------|-17--15-17-15-(15)\---15-------------|
|----17b19==(17)---(17)-17r=(17)-15----|-17--15-17-15-(15)\------------------|
|-----------------------------------17-|-------------------------------------|
|--------------------------------------|-------------------------------------|
|--------------------------------------|-------------------------------------|
 
  G5                                        Csus2          G/B
    ~~~~~         ~~~~
   +Q     a      +Q    +E   a      +E   +E   E    E   E  E  E      +Q     +S    S  E
|-(18)r--17b19==(17)--(17)r17b18==(17)r(17)-15-|-17-----15---------------------15----|
|----------------------------------------------|-----17----18b20==(18)---(18)r----18-|
|----------------------------------------------|-------------------------------------|
|----------------------------------------------|-------------------------------------|
|----------------------------------------------|-------------------------------------|
|----------------------------------------------|-------------------------------------|
 

                   D                        Csus2           G/B
                                    ~~~~~                                        ~~
   a      +E   +E   E  a      +E   +Q     E   E    E   E  E  E  a      +E   +E   Q
|-----------------------------------------------|-15-----15-15-17b18==(17)r(17)-15---|
|-------------------------------------------/17-|-----17-----------------------------|
|-17b19==(17)r(17)-15-17b19==(17)-(17)r---------|------------------------------------|
|-----------------------------------------------|------------------------------------|
|-----------------------------------------------|------------------------------------|
|-----------------------------------------------|------------------------------------|
 

Tempo markers -  = BPM(8/16=s8/s16), where s8 = swing 8ths, s16 = swing 16ths

 Comments (click here to add a non-facebook comment)
decent tab
-bone187 | 1/30/2005
Home | FAQs | Privacy | Terms | Contact
Top 100 Tab Sites