Give Kudos?
Are you sure you want to give kudos to yinielin?

Add To Songbook?
Are you sure you want to add this song to your songbook?


466 bands | 1,714 songs
Search: Register FREE! | Login
Browse Songs:
Browse Bands:
Tool Panel
Discuss This Song

1 2 3 4 5





AC/DC - You Shook Me All Night Long (Chord)
Album: Back In Black (1980)
Submitter: yinielin (4) on 8/7/03 2 comments
Month Views: 38 | Total Views: 13,109
Moderator: jackshaw3 | Report This Song?
Song Tools

Comment

Songbook

Kudos

Show Chords

Print

By:Yinielin
AC/DC.  You Shook Me All Night Long


The Guitar Behind the verses go like this

G   C C G C G D
    G G D G D G
    C C G C G D
    G G D G D G

Be Warned the switches from chord to chord 
are very fast.
   
 These are the chord formations  
   G   C  D 
E--3---0--2---
B--3---1--3---
G--0---0--2---
D--0---2--0---
A--2---3------
E--3----------

 
 Comments (click here to add a non-facebook comment)
I think the guitar behind the verses does this:

e-----------------------------------------------
B-----------------------------------------------
G-0-5-5-0-5-0-7-0-0-7-0-7--repeat---------------
D-0-5-5-0-5-0-7-0-0-7-0-7-----------------------
A-----------------------------------------------
E-----------------------------------------------

It's the same thing I just think it sounds better like this.
-wildbill2003 | 8/26/2003
One does that while other plays chords.
-yinielin | 8/27/2003
Home | FAQs | Privacy | Terms | Contact
Top 100 Tab Sites