Give Kudos?
Are you sure you want to give kudos to xco?

Add To Songbook?
Are you sure you want to add this song to your songbook?


492 bands | 1,865 songs
Search: Register FREE! | Login
Browse Songs:
Browse Bands:
Tool Panel
Discuss This Song

1 2 3 4 5



Angels - After The Rain (Chord)
Submitter: xco (0) on 6/16/11
Month Views: 13 | Total Views: 4,792
Help! We need a moderator for this artist. | Report This Song?
Song Tools

Comment

Songbook

Kudos

Show Chords

Print

Intro Riff: x2


D-6---------2--4-------0-2----------------------
A----7\--2-4------5-0-2--------------------------
E---------------------------4-2-0--4-2-0-0-------


(E5) Who lies on sheets of ice
(F#5) Who pays for paradise
(A) After the rain, After the (E5)rain
Who suffers fools and freaks
(F#5) Who hangs in guilty cliques
(A) After the rain, After the (E5)rain


Chorus:
Somebody (E)Save (Bb) me the (D) water's (A) risin'
(E) Sweet (D) Jesus (A) take the (D) blame
(E) Who (Bb) knows who's (D) star is (A) fallin'
(D) After the rain, after the (A) rain
(G#) (F#) (E) x 2
(Riff)


(E5) Who took the gold from their teeth
(F#5) Who takes the ancient masterpiece
(A) After the rain, After the (E5)rain


Who throws the winning dice
(F#5) Who lies beneath the ice
(A) After the rain, After the (E5)rain


Chorus


Break:
(E) (F#) (A) (E)
----------------------------------------------
-10^12-8-----------8----12^14-10--------------
---------9~-7-9-9~---------------11~-9-11-11~-
----------------------------------------------
----------------------------------------------
----------------------------------------------


----------------------------------------------------
10--12^14-12^14-12^14-12^14------10-12^14r12P10-5---
----------------------------12~9~-------------------
----------------------------------------------------
----------------------------------------------------
----------------------------------------------------
Chorus


Break
(Riff) x 6
After the rain, etc
You better look out 
 Comments (click here to add a non-facebook comment)
Home | FAQs | Privacy | Terms | Contact
Top 100 Tab Sites