Give Kudos?
Are you sure you want to give kudos to adammcc47?

Add To Songbook?
Are you sure you want to add this song to your songbook?


492 bands | 1,865 songs
Search: Register FREE! | Login
Browse Songs:
Browse Bands:
Tool Panel
Discuss This Song

1 2 3 4 5



Angels - After The Rain (Tab)
Submitter: adammcc47 (0) on 6/15/11
Month Views: 15 | Total Views: 6,845
Help! We need a moderator for this artist. | Report This Song?
Song Tools

Comment

Songbook

Kudos

Show Chords

Print

Title: After The Rain
Band: Angels
Updated tab: adammcc47
Original Post: Transcribed by: Russell Edwards roemcs at melb.alexia.net.au
Album: Face to Face


Intro Riff: x2


D--6---------2--4-0-----0-2----------------------
A----7\--2-4--------0-2--------------------------
E---------------------------3-2-0--3-2-0--0------


[E5] Who lies on sheets of ice
[F#5] Who pays for paradise
[A] After the rain, After the [E5]rain
Who suffers fools and freaks
[F#5] Who hangs in guilty cliques
[A] After the rain, After the [E5]rain


Chorus:
Somebody [E]Save [B] me the [D] water's [A] risin'
[E] Sweet [D] Jesus [A] take the [B] blame
[E] Who [B] knows who's [D] star is [A] fallin'
[D] After the rain, after the [A] rain
[G#] [F#] [E] x 2
[Riff]


[E5] Who took the gold from their teeth
[F#5] Who takes the ancient masterpiece
[A] After the rain, After the [E5]rain


Who throws the winning dice
[F#5] Who lies beneath the ice
[A] After the rain, After the [E5]rain


Chorus


Break:
[E] [F#] [A] [E]
----------------------------------------------------
-9b--9----------------11b--11-----------------------
--------9~-7h9-9-9~----------11~---9h11--11-11~-----
----------------------------------------------------
----------------------------------------------------
----------------------------------------------------


-9-----9-----9-----9------9-----------------------------------------
-12b---12b---12b--12b----12b-----------10b-10b--B10r-8-------8b-----
--------------------------------12--9--------------------9-9--------
--------------------------------------------------------------------
--------------------------------------------------------------------
--------------------------------------------------------------------
Chorus


Break
[Riff] x 6
After the rain, etc
You better look out
 Comments (click here to add a non-facebook comment)
Home | FAQs | Privacy | Terms | Contact
Top 100 Tab Sites