Give Kudos?
Are you sure you want to give kudos to Freezex61?

Add To Songbook?
Are you sure you want to add this song to your songbook?


472 bands | 1,727 songs
Search: Register FREE! | Login
Browse Songs:
Browse Bands:
Tool Panel
Discuss This Song

1 2 3 4 5



Angels - Marseilles (Chord)
Submitter: Freezex61 (0) on 4/30/19
Month Views: 72 | Total Views: 356
Help! We need a moderator for this artist. | Report This Song?
Song Tools

Comment

Songbook

Kudos

Show Chords

Print

MARSEILLES - The Angels         Tabbed By Freezex61


The A* Riff
e  -----------------------------------------------------
B ---2-----x---x---x---x---x---x------------------------
G ---2-----x---x---x---x---x---x-----------------------
D ---2-----x---x---x---x---x---x----2---4---5---x---4--
A ---0-----x---x---x---x---x---x----0---0---0---0---0--
E -----------------------------------------------------



Intro:  A  	 D G D A x 4

A                        A*      A                        A*    
Bought me a box of French cigars, bought me a black beret
A                     A*            A                        A*    
Get my French from a girl next door, teaching me night & day
A                         A*              A               A*    
Got me thinking about the south of France, vis-a-vis vous
A                A*              A                      A*    
Pack my suitcase, take a chance, got nothing to lose


D                         G             D                  G
Give me the sound of the rolling dice  	 Give me a whiskey, don't think twice
D                     G               E                             A        A*   A*
Deal me the card that takes my blues away 	 Take me away to Marseilles


A                      A*             A                        A*    
Fast train, jet plane, money to burn, don't ask the reason why
A                   A*               A                       A*    
Drinkin' champagne, playing it cool, don't even have to try


Give me the sound of the rolling dice  	 Give me a whiskey, don't think twice
Deal me the card that takes my blues away 	 Take me away to Marseilles


Solo:  ( Intro & Chorus)  

                      A     A*     A*
Take me away to Marseilles 	 


A                      A*             A                        A*    
Fast train, jet plane, money to burn, don't ask the reason why
A                   A*               A                       A*    
Drinkin' champagne, playing it cool, don't even have to try
A                             A*              A               A*    
I'm still thinking about the south of France, vis-a-vis vous
A                A*              A                      A*    
Pack my suitcase, take a chance, got nothing to lose


Give me the sound of the rolling dice  	 Give me a whiskey, don't think twice
Deal me the card that takes my blues away 	 Take me away to Marseilles


 D                   A          D                      A       
   Take me away to Marseilles      Ma-ma-ma-ma-ma Marseilles 	      

D                       A        D
  Take me away to Marseilles


Bridge : Riff 1 Twice, Riff 2 Twice


(Some french spoken over the riff... don't know what... can't speak the lingo)

  Bridge Riff 1               Bridge Riff 2

e  --------------------|----------------5---------------5---------------5-------5-
B ---5-----3-----2-----|------------5----------------3---------------2----------2-
G ---0-----0-----2-----|---------0----------------0---------------2-------------2-
D ---5-----4-----2-----|-------5----------------4-------------2-----------------2-
A ---0-----0-----0-----|---0----------------0-------------0---------------0-----0-
E ---------------------|----------------------------------------------------------



Outro Solo:  A   D  to the end

 
 Comments (click here to add a non-facebook comment)
Home | FAQs | Privacy | Terms | Contact
Top 100 Tab Sites