Give Kudos?
Are you sure you want to give kudos to ROCKIN RON?

Add To Songbook?
Are you sure you want to add this song to your songbook?


466 bands | 1,714 songs
Search: Register FREE! | Login
Browse Songs:
Browse Bands:
Tool Panel
Discuss This Song

1 2 3 4 5





Australian Crawl - Oh No Not You Again (Tab)
Submitter: ROCKIN RON (18) on 3/30/05 1 comment
Month Views: 473 | Total Views: 19,345
Moderator: jono1967 | Report This Song?
Song Tools

Comment

Songbook

Kudos

Show Chords

Print

Oh no not you again  - Australian Crawl		

Thanks to the Freeze man.

 	
Intro: 

e----7s5-----5-----------------------------------------------------
B----7s5-7-7--------5-5h7p5---5------------------------------------
G---------------------------6---6------4-------------0-----0----0--
D-0---------------------------------5----------5---5---5-4----2---0
A---------------0-------------------------5h7----7-----------------
E------------------------------------------------------------------

e----7s5-----5-----------------------------------------------------
B--------7-7--------5-5h7p5---5------------------------------------
G---------------------------6---6------4-------------0-----0----0--
D-0---------------------------------5----------5---5---5-4----2---0
A---------------0-------------------------5h7----7-----------------
E------------------------------------------------------------------

e-------------------------------------------5-------------------
B--5h7--7s10--10s5--5-5-3---------7-7-7-7-7---7-5-7------------
G---------------------------2-4----------------------------
D--------------------------------------------------------------
A--------------------------------------------------------------
E--------------------------------------------------------------

e----------------7---7-7--5-----------7-5----------------------
B-7-7p5----5-7---------------8-8--8-7-----7-5--5s3--------------
G--------7------------------------------------------------------
D--------------------------------------------------------------
A--------------------------------------------------------------
E--------------------------------------------------------------


D A G A 



D                     A                     G                    A
Let me tell you about two young lovers that lived down the coast
D               A             G               A 
She was such a pretty thing, man what a host
D        A                 G             A
Evening time she sets the table for four
D                        A                 G                              A
Some friends are coming round tonight He's out on the town trying to score

Woke up early this morning somethings got his mind
Cursing the night before breakfast at nine
Felt him restless woah all through the night
You know restless all through the night
She sees that something is wrong with him
She don't want to cry she just wants to know why

D    A             G         A
Oh...... Oh no not you again
D    A             G         A
Oh...... Oh no not you again

Don't own a swimming pool not even a colour tv
Works awful hard some days she lets him be
You know it ain't looking good for them no loving no more
Some friends are coming round tonight he's out on the town
Knocking on the wrong door

Oh oh no not you again
Oh oh no not you again
Oh oh no not you again,she's gone, she's gone, she's gone, she's gone

SOLO:

Let me tell you about two young lovers that lived down the coast
She was such a pretty thing, man what a host
Evening time she sets the table for four
Some friends are coming round tonight He's out on the town trying to score


Oh oh no not you again 
Oh oh no not you again 
Oh oh no not you again 
Oh oh no not you again, she's gone, she's gone,she's gone, she's gone
Oh oh no not you again, again,again, again, again  
Oh oh no not you again, Baby, baby, baby 
Oh oh no not you again, you again now baby
Oh oh no not you again 


Solo:


b = bend
r = return
s = slide
h = hammer on
p = pull off
~ = hold note
x = mute


e-----------------------------------------------------------------------
B---------------------------------------------------10b11--11r10-10-----
G---------------------7------9b10-7--x-9--9b10r9p7------------------9~--
D-------4~-4-5-7--7s9---9-----------------------------------------------
A-5~-7~-------------------7~--------------------------------------------
E-----------------------------------------------------------------------


e---------------------7------10-9---------------------------17b18r17-----
B------7------7-----7---10-7------10---------15-17b18r17-15----------15--
G-9b10---9b10---9-7------------------9--9s16-----------------------------
D------------------------------------------------------------------------
A------------------------------------------------------------------------
E------------------------------------------------------------------------

(turn on the delay and go for it, these notes are not correct, it's all 
too quick for my ear...corrections welcome)

e-18b19r18---------------------------------------------------------------
B----------15-15s0------11------11------------------------7h8p7-10p9p7---
G------------------9b10----9b10----9h11p9h11p9--7h9p7h9p7----------------
D------------------------------------------------------------------------
A------------------------------------------------------------------------
E------------------------------------------------------------------------


e------------------------------------------------------------------------
B-------------------------------------------------------------------------
G-9p7---7h9p7----------------------------6-7-7-6-7~-----------------------
D-----9-------9p7--9p7---7-----------7-7----------------------------------
A----------------------9---9p7s5h7s9--------------------------------------
E--------------------------------------------------------------------
 

 Comments (click here to add a non-facebook comment)
One of their best,,, great job
-aussief | 7/2/2011
Home | FAQs | Privacy | Terms | Contact
Top 100 Tab Sites