Give Kudos?
Are you sure you want to give kudos to munki89?

Add To Songbook?
Are you sure you want to add this song to your songbook?


466 bands | 1,715 songs
Search: Register FREE! | Login
Browse Songs:
Browse Bands:
Tool Panel
Discuss This Song

1 2 3 4 5





Ben Lee - Apple Candy (Chord)
Album: Awake is the New Sleep (2005)
Submitter: munki89 (0) on 11/19/05
Month Views: 19 | Total Views: 2,784
Moderator: bonzaboy | Report This Song?
Song Tools

Comment

Songbook

Kudos

Show Chords

Print

Apple Candy
Ben Lee

Main Riff

---0---0---0---0---0---0---0---0---0---0---0---0---0---0---0---0-
-----------------------------------------------------------------
-----------------------------------------------------------------
-----------------2---2---2---2-------------------2---2---2---2---
-0---0---0---0-------------------0---0---0---0-------------------
-----------------------------------------------------------------

---0---0---0---0---0---0---0---0---0---0---0---0---0---0---0---0-
-----------------------------------------------------------------
-----------------------------------------------------------------
-0---0---0---0---2---2---2---2---0---0---0---0---2---2---2---2---
-----------------------------------------------------------------
----------------------------------------------------------------- 
 Comments (click here to add a non-facebook comment)
Home | FAQs | Privacy | Terms | Contact
Top 100 Tab Sites