Give Kudos?
Are you sure you want to give kudos to munki89?

Add To Songbook?
Are you sure you want to add this song to your songbook?


467 bands | 1,717 songs
Search: Register FREE! | Login
Browse Songs:
Browse Bands:
Tool Panel
Discuss This Song

1 2 3 4 5





Ben Lee - Get Gotten (Chord)
Album: Awake is the New Sleep (2005)
Submitter: munki89 (0) on 11/20/05
Month Views: 7 | Total Views: 2,921
Moderator: bonzaboy | Report This Song?
Song Tools

Comment

Songbook

Kudos

Show Chords

Print

Get Gotten
Ben Lee

Verse:

-----------------
-----3-----3-----
---0-----0---0---
-----------------
-----------------
-0-----3-------3-

play this a couple of times over after a while:

-----------------
-----3-----3-----
---2-----2---2--- not sure about the notes on
----------------- the g string
-0-----0-------0- 
----------------- 


----------------- -----------------
-----3-----3----- -----3-----3-----
---2-----2---2--- ---2-----2---2---
----------------- -----------------
-0-----0-------0- -2-----2-------2- 
----------------- -----------------

----------------- -----------------
-----3-----3----- -----3-----3-----
---0-----0---0--- ---0-----0---0---
----------------- -----------------
----------------- -----------------
-0-----3-------3- -0-----3-------3-

Verse:

-----------------
-----3-----3-----
---0-----0---0---
-----------------
-----------------
-0-----3-------3-

play this a couple of times over after a while:

-----------------
-----3-----3-----
---2-----2---2--- not sure about the notes on
----------------- the g string
-0-----0-------0- 
----------------- 


----------------- -----------------
-----3-----3----- -----3-----3-----
---2-----2---2--- ---2-----2---2---
----------------- -----------------
-0-----0-------0- -2-----2-------2- 
----------------- -----------------

----------------- -----------------
-----3-----3----- -----3-----3-----
---0-----0---0--- ---0-----0---0---
----------------- -----------------
----------------- -----------------
-0-----3-------3- -0-----3-------3- 
 Comments (click here to add a non-facebook comment)
Home | FAQs | Privacy | Terms | Contact
Top 100 Tab Sites