Give Kudos?
Are you sure you want to give kudos to waynusofuranus?

Add To Songbook?
Are you sure you want to add this song to your songbook?


490 bands | 1,852 songs
Search: Register FREE! | Login
Browse Songs:
Browse Bands:
Tool Panel
Discuss This Song

1 2 3 4 5



Bernard Fanning - Hope & Validation - Open E (Chord)
Submitter: waynusofuranus (0) on 12/26/05 1 comment
Month Views: 8 | Total Views: 4,412
Help! We need a moderator for this artist. | Report This Song?
Song Tools

Comment

Songbook

Kudos

Show Chords

Print

HOPE & VALIDATION
Written by Bernard Fanning

2 beats per chord                Refer to TAB for detail of
` = 2 beats                      embellishments and rhythm.
_ = change on 4+
Tuning = E B E G# B E

INTRO:
E  `  B  Asus2

E  `  B  Asus2

VERSE:
E  `                B             Asus2
   Plans and prepar-ations are de-cided in
E    `                  B        Asus2
Vain think we've seen e-nough now
E  `             B            Asus2
   Hope and vali-dation are u-nited a-
E   `  B  Asus2
gain

CHORUS-1:
E*  `  _Bsus2/4           `
          Higher than the buds that
E*     `  _Bsus2/4                `
Bloomed      I've seen it hanging in your
E*  `  _E7/D           G                A   `
Face      you may need time to think it over

VERSE:
E  `            B               Asus2
   Set a new di-rection for the harvest a-
E    `                  B        Asus2
head think we've seen e-nough now
E  `               B            Asus2
   Built the resur-rection of a bond nearly
E   `        B        Asus2
Dead  seen e-nough now

CHORUS-2:
E*  `  _Bsus2/4           `
          Higher than the windswept
E*  `  _Bsus2/4                `
Moon      I've seen it hanging in your
E*  `  _E7/D           G                A   `
Face      you may need time to think it over

SOLO:
G  `  A  `  E,  `  Bsus4  `

G  `  A  `  E,  `  C#sus4  C#

VERSE-VARIATION:
E  `                B             Asus2
   Plans and prepar-ations are de-cided in
E    `             B            Asus2
Vain hope and vali-dation are u-nited a-
E    `            B               Asus2
gain set a new di-rection for the harvest a-
E    `               B            Asus2
head built the resur-rection of a bond nearly

CODA:
E    `                  B        Asus2
Dead think we've seen e-nough now
E  `                  B        Asus2
   Think we've seen e-nough now
E  `                  B        Asus2
   Think we've seen e-nough now
E  `                  B        Asus2  E
   Think we've seen e-nough now

================================================================================

The recording is about 20 cents sharp: A=445Hz

TUNING:  6  5  4  3  2  1
Open-E   E  B  E  G# B  E

CHORDS:
     E   B  Asus2  E*  Bsus2/4  E7/D  G   A   E,  Bsus4  C#sus4  C#
 E|--0--------5----0-----0-------0----3---5---0-----0------9-----9--|
 B|--0---0----0----0-----0-------3----3---5---0-----0------9-----9--|
G#|--12--7----3----0-----5-------0----3---5---0-----8------10----9--|
 E|--0---7----0----4-----7-------0----3---5---0-----7------9-----9--|
 B|--12--0---------0-----0-------3----3---5---0-----0------9-----9--|
 E|--0--------5----0------------------3---5---0------------9-----9--|

INTRO/VERSE:
Rhythm is a sixteenth note strum with accents on 1 2+ 4 (rhumba).
Melodic embellishments are provided by the suspensions.

    E(2/4) E              (2) E       B   (2) E   A     Asus2    E     Left-Hand
    1  e + a 2 e  +  3  +  4  e  +    1  + a  2   +   3 e  +  4  +     Fingering
 E|-0------0---0--0--------0--0--0--|-x-------0---5-----5--5--5--0--|  - little
 B|-0------0---0--0--------0--0--0--|-0----0--0---x-----0--0--0--0--|   . index
G#|-10/12--12--12-12------.10h12-12-|-7---.5--0---5----.3-.3-.3--0--|  - ring
 E|-0------0---0--0--------0--0--0--|-7----7--0---0-----0--0--0--0--|  \ 
 B|-10/12--12--12-12-------12-12-12-|-0-------0------------------0--|  - middle
 E|-0------0---0--0--------0--0--0--|---------0---5-----5--5--5--0--|  /

CHORUS:
Feel is a straight four with accent for changes on 4+
Open strings passing chord appears between each change.
E-chord has an embellishment on Beat-1 and 3:

    E*
    1 e +
    3 e +
 E|-0-------~~
 B|-0-------~~
G#|-0-------~~
 E|-2/4-----~~
 B|-0-------~~
 E|-0-------~~


Waynus Of Uranus
December 2005
 
 Comments (click here to add a non-facebook comment)
I first found this band on myspace.com and I went to one of they shows and they freakin rock. Their gonna be the next big thing. Their CD Forget What's Wrong is straight down to earth Texas music.
-msbs31 | 11/1/2005
Home | FAQs | Privacy | Terms | Contact
Top 100 Tab Sites