Give Kudos?
Are you sure you want to give kudos to waynusofuranus?

Add To Songbook?
Are you sure you want to add this song to your songbook?


466 bands | 1,714 songs
Search: Register FREE! | Login
Browse Songs:
Browse Bands:
Tool Panel
Discuss This Song

1 2 3 4 5





Easybeats - Come In You'll Get Pneumonia (Chord)
Submitter: waynusofuranus (71) on 6/18/05
Month Views: 16 | Total Views: 3,672
Moderator: kraziekhat | Report This Song?
Song Tools

Comment

Songbook

Kudos

Show Chords

Print

COME IN YOU'LL GET PNEUMONIA
Written by Harry Vanda, George Young and Tony Cahill

4 beats per chord
` = 2 beats
= = note (not chord)
(capo at third fret)

INTRO:  (fanfare)
`Am  `B7sus4    E    NC

VERSE:        1   2 + 3 + 4  
(percussion)      * *   * *

Am  Cmaj7  C/G               G#aug
My  my     look who's at the door
F               D7        C  Csus4
Standing in the rain it's you  and I thought you'd
Dmadd4  D   D=     D=
Gone       (hum)  (drum fill)

CHORUS-A:
G                                 C/G
All right come in you'll get pneu-monia you can stay until the
G                              C/G
Morning and then you goes your own way you know you let your
G                                 C/G
Chance go when you left me at the station don't make yourself at

CHORUS-B:
G                             C/G
Home here you knows you ain't stayin' and telephone your
G                            C/G
Mother and tell her where to reach ya a-come and get ya in the
G                          C/G
Morning and not to bring a preacher I said

CHORUS-A:
G                                 C6/G
All right come in you'll get pneu-monia you can stay until the
G                              C6/G
Morning and then you goes your own way you know you let your
G                                 C69/G
Chance go when you left me at the station I said

CHORUS-A:
G6                                C69/G
All right come in you'll get pneu-monia you can stay until the
G6                             C69/G
Morning and then you goes your own way you know you let your
G69                               C69/G
Chance go when you left me at the station
A=  A=
(bells)

VERSE:
Am  B5  C/G              G#aug
My  my  what you waitin' for
F               D7     C    Csus4
What you cryin' for or could  that be the
Dmadd4  D               D=     D=
Rain   (strings fill)  (hum)  (drum fill)

CHORUS-A:
G                                 C/G
All right come in you'll get pneu-monia you can stay until the
G                              C/G
Morning and then you goes your own way you know you let your
G                                 C6/G
Chance go when you left me at the station I said

CHORUS-C:
G                                 C6/G
All right come in you'll get pneu-monia and telephone your
G6                           C69/G
Mother and tell her where to reach ya come and get ya in the
G6                         C69/G
Morning and not to bring a preacher I said

CHORUS-A:  (fade on repeat)
G69                               C69/G
All right come in you'll get pneu-monia you can stay until the
G69                            C69/G
Morning and then you goes your own way you know you let your
G69                               C69/G
Chance go when you left me at the station I said



================================================================================

The recording is 40 cents sharp having been sped up in mastering.

CHORDS:
    Am  B7sus4  E  Cmaj7  C/G  G#aug  F   D7  C  Csus4  Dmadd4  D   G   B5
E|--0-----2-----0---0------0----0-----1---2---------------3-----5---3---2--|
B|--1-----0-----0---1------1----1-----1---1---5---6-------6-----7---0---0--|
G|--2-----2-----1---4------0----1-----2---2---0---0-------0-----7---0---4--|
D|--2-----2-----2----------2----2-----3---0---------------0-----0---0---4--|
A|--0-----2-----2----------3----3-----3-------3---3-----------------2---2--|
E|--------------0----------3---(4)----1-----------------------------3------|

Alternate voicings may be easier to remember:
    Cmaj7  C  Csus4  Dmadd4  D
E|---0-----0---1-------1-----2--|
B|---1-----1---1-------3-----3--|
G|---0-----0---0-------0-----2--|
D|---2-----2---3-------0-----0--|
A|---3-----3---3-------0--------|
E|------------------------------|

The CHORUS builds during the repeats. Mimic the arrangement
by adding more notes to the two chords:

    G6  G69   C6/G  C69/G
E|--0----0--|--0-----0---|
B|--0----0--|--1-----1---|
G|--0----0--|--0-----0---|
D|--0----0--|--2-----0---|
A|--2----0--|--0-----0---|
E|--3----3--|--3-----3---|

Strings fill:
   1   + a 2   + a 3 e + a 4 e +
E|-5---1/2-------------------------|   / = slide
B|---------3-----------------------|
G|-------------2-4-5-5-4-3-2-------|
D|---------------------------4-----|
A|-----------------------------5---|
E|---------------------------------|


Waynus Of Uranus
June 2005
 
 Comments (click here to add a non-facebook comment)
Home | FAQs | Privacy | Terms | Contact
Top 100 Tab Sites