Give Kudos?
Are you sure you want to give kudos to pjvill?

Add To Songbook?
Are you sure you want to add this song to your songbook?


466 bands | 1,714 songs
Search: Register FREE! | Login
Browse Songs:
Browse Bands:
Tool Panel
Discuss This Song

1 2 3 4 5





Easybeats - Do You Have A Soul (Tab)
Submitter: pjvill (8) on 11/24/05
Month Views: 17 | Total Views: 2,670
Moderator: kraziekhat | Report This Song?
Song Tools

Comment

Songbook

Kudos

Show Chords

Print

-----------------------------------------------------------------

  THE EASYBEATS - DO YOU HAVE A SOUL (Vanda/Young) From FRIDAY OF 
                  MY MIND album. Released in 1967. 

-----------------------------------------------------------------

  Tabbed by:PJVillanueva




With all my friends we hang around
The back streets here in my own town
Because I got no money and I look real poor
It doesn't mean to say that you can close your door

Ay ay ay ay ay ay ay ay ay
Anybody here please tell me what to do
Ay ay ay ay ay ay ay ay ay
I see the world and my mind don't like the view             
Ooooooooooooh
                
Do you have a heart? Do you have a soul?  
Do you have a love that never grows old? 

Do you have a heart? Do you have a soul?  
Do you have a love that never grows old? 

Doodododo  doodododo  doodododo  doodododo
Doodododo  doodododo  doodododo  doodododo   
 
You look real good in your white Rolls Royce
And you have a million pounds worth of playing toys
You're usin' all those people like you use the phone  
The figures of your brother like a thing you own      

Ay ay ay ay ay ay ay ay ay
Anybody here please tell me what to do
Ay ay ay ay ay ay ay ay ay                                      
I see the world but my mind don't like the view
Ooooooooooooh
                
Do you have a heart? Do you have a soul?  
Do you have a love that never grows old? 

Do you have a heart? Do you have a soul?  
Do you have a love that never grows old?  

Doodododo  doodododo  doodododo  doodododo
Doodododo  doodododo  doodododo  doodododo

Do you have a heart? Do you have a soul?  
Do you have a love that never grows old? 

Do you have a heart? Do you have a soul?  
Do you have a love that never grows old?  


                                                              

 (F+5/sus4)                                  
  Bbmmaj7                  
e|1------ ------- ------- -------|----1-- ------- ------- -------|
B|2------------------------------|----2--------------------------|
G|2------------------------------|----2--------------------------|
D|3------------------------------|----3--------------------------|
A|1------------------------------|----1--------------------------|
E|-------------------------------|-------------------------------|
                  (Ape's gibber)
e|5------ ------- 5------ -------|5------ ------- 5------ -------|
B|-------------------------------|-------------------------------|
G|--------2---------------2------|--------2---------------2------|
D|-------------------------------|-------------------------------|
A|-------------------------------|-------------------------------|
E|-------------------------------|-------------------------------|




e|------- ------- 1------ -------|------- ----1-- ------- -------|
B|----------------2--------------|------------2------------------|
G|----------------2--------------|------------2------------------|
D|----------------3--------------|------------3------------------|
A|----------------1--------------|------------1------------------|
E|-------------------------------|-------------------------------|

e|5------ ------- 5------ -------|5------ ------- 5------ -------|
B|-------------------------------|-------------------------------|
G|--------2---------------2------|--------2---------------2------|
D|-------------------------------|-------------------------------|
A|-------------------------------|-------------------------------|
E|-------------------------------|-------------------------------|




e|5------ ------- 5------ -------|5------ -------|
B|-------------------------------|---------------|
G|--------2---------------2------|--------2------|
D|-------------------------------|---------------|
A|-------------------------------|---------------|
E|-------------------------------|---------------|
                                              With 
e|------- ------- ------- -------|------- -------|
B|-------------------------------|---------------|
G|-------------------------------|---------------|
D|-------------------------------|---------------|
A|-------------------------------|---------------|
E|-------------------------------|---------------|



  
e|5------ ------- ------- -------|------- ------- ------- -------|
B|-------------------------------|-------------------------------|
G|--------2-------5-------4------|2-------4-------5-------4------|
D|-------------------------------|-------------------------------|
A|-------------------------------|-------------------------------|
E|-------------------------------|-------------------------------|
  all     my      friends we  hang    around                  the
e|------- ------- ------- -------|------- ------- ------- -------|
B|-------------------------------|-------------------------------|
G|-------------------------------|-------------------------------|
D|2---2---2---2---2---2---2---2--|5---5---5---5---5---5---5---5--|
A|-------------------------------|-------------------------------|
E|-------------------------------|-------------------------------|
  A5                              A7
e|------- ------- ------- -------|------- ------- ------- -------|
B|-------------------------------|-------------------------------|
G|-------------------------------|-------------------------------|
D|-------------------------------|-------------------------------|
A|-------------------------------|-------------------------------|
E|5---5---5---5---5---5---5---5--|5---5---5---5---5---5---5---5--|



  
e|------- ------- ------- -------|------- ------- ------- -------|
B|-------------------------------|-------------------------------|
G|2-------2-------5-------4------|2-------4-------5-------4------|
D|-------------------------------|-------------------------------|
A|-------------------------------|-------------------------------|
E|-------------------------------|-------------------------------|
  back    streets here    in  my      home    town             Be..
e|------- ------- ------- -------|------- ------- ------- -------|
B|-------------------------------|-------------------------------|
G|-------------------------------|-------------------------------|
D|4---4---4---4---4---4---4---4--|3---3---3---3---3---3---3---3--|
A|-------------------------------|-------------------------------|
E|-------------------------------|-------------------------------|
  A6                              A+5
e|------- ------- ------- -------|------- ------- ------- -------|
B|-------------------------------|-------------------------------|
G|-------------------------------|-------------------------------|
D|-------------------------------|-------------------------------|
A|-------------------------------|-------------------------------|
E|5---5---5---5---5---5---5---5--|5---5---5---5---5---5---5---0--|


          x               x               x               x

e|------- ------- ------- -------|------- ------- ------- -------|
B|-------------------------------|-------------------------------|
G|2-------2-------5-------4------|2-------4-------5-------4------|
D|-------------------------------|-------------------------------|
A|-------------------------------|-------------------------------|
E|-------------------------------|-------------------------------|
 .cause I got no  money   and I   look real   poor            it
e|------- ------- ------- -------|------- ------- ------- -------|
B|-------------------------------|-------------------------------|
G|-------------------------------|-------------------------------|
D|4---4---4---4---4---4---4---4--|5---5---5---5---5---5---5---5--|
A|-------------------------------|-------------------------------|
E|-------------------------------|-------------------------------|
  A6                              A7
e|------- ------
 Comments (click here to add a non-facebook comment)
Home | FAQs | Privacy | Terms | Contact
Top 100 Tab Sites