Give Kudos?
Are you sure you want to give kudos to pjvill?

Add To Songbook?
Are you sure you want to add this song to your songbook?


466 bands | 1,714 songs
Search: Register FREE! | Login
Browse Songs:
Browse Bands:
Tool Panel
Discuss This Song

1 2 3 4 5





Easybeats - Friday On My Mind (Tab)
Submitter: pjvill (9) on 11/24/05 2 comments
Month Views: 42 | Total Views: 4,526
Moderator: kraziekhat | Report This Song?
Song Tools

Comment

Songbook

Kudos

Show Chords

Print

-------------------------------------------------------------
  
  THE EASYBEATS - FRIDAY ON MY MIND (Vanda/Young) First date 
                  of release: 1967

-------------------------------------------------------------

  Tabbed by:PJVillanueva






Monday morning feels so bad
Everybody seems to nag me
Coming Tuesday I feel better
Even my old man looks good
Wednesday just won't go
Thursday goes too slow
I got Friday on my mind
Gonna have fun in the city
Be with my girl she's so pretty
She looks fine tonight
She is outasight to me
Tonight I'll spend my bread
Tonight I'll lose my head
Tonight I got to get..
Tonight
Monday I'll have Friday on my mind
Do the five day grind once more
Know of nothing else that bugs me
More than working for the rich man
Hey I'll change that scene one day
Today I might be mad
Tomorrow I'll be glad
Coz I got Friday on my mind





  E
E|----------------|----------------|----------------|----------------|
B|----------------|----------------|----------------|----------------|
G|----------------|----------------|----------------|----------------|
D|--9---9---9---9-|--9---9---9---9-|--9---9---9---9-|--9---9---9---9-|
A|7---7---7---7---|7---7---7---7---|7---7---7---7---|7---7---7---7---|
E|----------------|----------------|----------------|----------------|
                                            Monday morning feels so bad

  A                                 E
E|----------------|----------------|----------------|----------------|
B|----------------|----------------|----------------|----------------|
G|----------------|----------------|----------------|----------------|
D|--7---7---7---7-|--7---7---7---9-|--9---9---9---9-|--9---9---9---9-|
A|----------------|5-------5-------|7---7---7---7---|7---7---7---7---|
E|5---5---5---5---|----5-------5---|----------------|----------------|
                                              Everybody  seems to   

  A                                 G
E|----------------|----------------|----------------|----------------|
B|----------------|----------------|----------------|----------------|
G|----------------|----------------|----------------|----------------|
D|--7---7---7---7-|--7---7---7-----|--5---5---5---5-|--5---5---5---5-|
A|----------------|5-------5-----5-|----------------|----------------|
E|5---5---5---5---|----5-------5---|3---3---3---3---|3---3---3---3---|
  nag              me                       Coming tuesday I feel 

  B                                 E
E|----------------|----------------|----------------|----------------|
B|----------------|----------------|----------------|----------------|
G|--4---3---2---1-|--0-------------|----------------|----------------|
D|----------------|------4---4---4-|--2---2---2---2-|--2---2---2---2-|
A|2---2---2---2---|2---2---2---2---|----------------|----------------|
E|----------------|----------------|0---0---0---0---|0---0---0---0---|
  better                                     Even my   old man looks 
E|----------------|----------------|----------------|----------------|
B|----------------|--9-----7-8-7---|----------------|----------------|
G|----------9---8-|--------------9-|7---------------|----------------|
D|--9---8---------|----------------|----------------|----------------|
A|----------------|----------------|----------------|----------------|
E|7---------------|----------------|----------------|----------------|


  Am                                A
E|----------------|----------------|----------------|----------------|
B|----------------|----------------|----------------|----------------|
G|--2---2---2---2-|--2---2---2---2-|--2---2---2---2-|--2---2---2---2-|
D|----------------|----------------|----------------|----------------|
A|0---0---0---0---|0---0---0---0---|0---0---0---0---|0---0---0---0---|
E|----------------|----------------|----------------|----------------|
    good                                     Wednesday just won't go
E|----------------|----------------|----------------|----------------|
B|----------------|5-6-5---5-------|----------------|----------------|
G|----------------|------7---7-5-4-|6---------------|----------------|
D|----------------|----------------|----------------|----------------|
A|----------------|----------------|----------------|----------------|
E|----------------|----------------|----------------|----------------|

E|----------------|----------------|----------------|----------------|
B|----------------|----------------|----------------|----------------|
G|----------------|----------------|--------2-3---3-|--6---6---------|


  Dm
E|----------------|----------------|----------------|----------------|
B|----------------|----------------|----------------|----------------|
G|--7---7---7---7-|--7---7---7---7-|--7---7---7---7-|--7---7---7---7-|
D|----------------|----------------|----------------|----------------|
A|5---5---5---5---|5---5---5---5---|5---5---5---5---|5---5---5---5---|
E|----------------|----------------|----------------|----------------|
         thursday goes too slow             I got friday   on    my
E|----------------|5-6-5---5-------|----------------|----------------|
B|----------------|------7---7-5-4-|5---------------|----------------|
G|----------------|----------------|----------------|----------------|
D|----------------|----------------|----------------|----------------|
A|----------------|----------------|----------------|----------------|
E|----------------|----------------|----------------|----------------|

E|----------------|----------------|----------------|----------------|
B|----------5---5-|--6---6---------|--------6-8---8-|--9---9---8-----|
G|--------7-------|----------------|----------------|----------------|



  C       E        A   F#  B   E7   A
E|0-------0-------|5---2---7---0---|5---5-5-5---5-5-|5---5-5-5---5---|
B|1-------0-------|5---2---7---5---|5---5-5-5---5-5-|5---5-5-5---5---|
G|0-------1-------|6---3---8---7---|6---6-6-6---6-6-|6---6-6-6---6---|
D|2-------2-------|7---4---9---6---|7---7-7-7---7-7-|7---7-7-7---7---|
A|3-------2-------|7---4---9---7---|7---7-7-7---7-7-|7---7-7-7---7---|
E|3-------0-------|5---2---7---0---|5---------------|----------------|
  mind                                      Goona have fun   in  the 

  Ebm                               A
E|4---4-4-4-4-4---|4---4-4-4-4-4-55|5---5-------5---|----5-------5---|
B|5---5-5-5-5-5---|5---5-5-5-5-5-55|5---5-------5---|----5-------5---|
G|6---6-6-6-6-6---|6---6-6-6-6-6-66|6---6-------6---|----6-------6---|
D|6---6-6-6-6-6---|6---6-6-6-6-6-77|7---7-------7---|----7-------7---|
A|4---4-4-4-4-4---|4---4-4-4-4-4-77|7---7-------7---|----7-------7---|
E|----------------|--------------55|5---5-------5---|----5-------5---|
  city                                      Be with my girl she's so
E|----------------|----------------|----------------|----------------|
B|----------------|2-3-2---2-------|----------------|----------------|
G|----------------|------4---4-2-1-|2---------------|----------------|
D|----------------|----------------|----------------|----------------|
A|----------------|----------------|----------------|----------------|
E|----------------|----------------|----------------|----------------|


  Ebm                               D                              F#
E|----4-------4---|4-4---4--4--4---|2---2-2-2---2-2-|2-2---2---2-2-2-|
B|----5-------5---|5-5---5--5--5---|3---3-3-3---3-3-|3-3---3---3-3-2-|
G|----6-------6---|6-6---6--6--6---|2---2-2-2---2-2-|2-2---2---2-2-3-|
D|----6-------6---|6-6---6--6--6---|0---0-0-0---0-0-|0-0---0---0-0-4-|
A|----4-------4---|4-4---4--4--4---|----------------|--------------4-|
E|----------------|----------------|----------------|--------------2-|
  pretty                                    She looks fine tonight        
E|----------------|----------------|-------------
 Comments (click here to add a non-facebook comment)
thanks
-macg1 | 10/2/2005
Great work! The "Ebm" is correctly tabbed but should be labeled "C#m" I think
-Deason | 2/29/2012
Home | FAQs | Privacy | Terms | Contact
Top 100 Tab Sites