Give Kudos?
Are you sure you want to give kudos to pjvill?

Add To Songbook?
Are you sure you want to add this song to your songbook?


466 bands | 1,714 songs
Search: Register FREE! | Login
Browse Songs:
Browse Bands:
Tool Panel
Discuss This Song

1 2 3 4 5





Easybeats - Heaven And Hell 2 (Tab)
Submitter: pjvill (8) on 11/24/05
Month Views: 18 | Total Views: 2,904
Moderator: kraziekhat | Report This Song?
Song Tools

Comment

Songbook

Kudos

Show Chords

Print

 
-------------------------------------------------------------------

  THE EASYBEATS - HEAVEN AND HELL (Vanda/Young) Tenth single A side
                  Released in 1967. Also as FRIDAY ON MY MIND album
                  aditional track. Banned in the USA for the second
                  line of the lyrics. 

-------------------------------------------------------------------

  Tabbed by:PJVillanueva



 

Hell is knowing that your face has gone red
Discovering someone else in your bed 
Baby, baby,
This kind of loveís bringing down this man

Youíve got me going between heaven and hell
The ups and downs of you has got me so I can stand up and yell
You did me wrong but I know you
Still thereís no disputiní that youíre out of sight

Hell, Iím drowning in the sea of despair
The world goes by but Iím not aware
Baby, baby,
This kind of loveís bringing down this man

Youíve got me going between heaven and hell
The ups and downs of you has got me so I can stand up and yell
You treat me wrong but I know you
Still thereís no disputiní that youíre out of sight

Heaven is in youíre eyes
The moment you realise
Iíll soon be free
Free for you oo oo (Aaahh)

Oooh Ooh Ooh Ooh 
Ooh Ooh Oooh (Woah I tell ya)

Youíve got me going between heaven and hell
The ups and downs of you has got me so I can stand up and yell
You treat me wrong but I know you
Still thereís no disputiní that youíre out of sight

 



                                                          x x x x
  
e|------- ------- ------- -------|------- ------- ------- -------|
B|-------------------------------|-------------------------------|
G|-------------------------------|-----------------------------2-|
D|-------------------------------|-------------------------------|
A|-------------------------------|------------------------2-3-4--|
E|-------------------------------|-------------------------------|



  X

e|------- ------- ------- -------|------- ------- ------- -------|
B|-------------------------------|-------------------------------|
G|-----------------------------2-|-----------------------------2-|
D|-------------------------------|-------------------------------|
A|0---0---0---0---0---0---2-3-4--|0---0---0---0---0---0---2-3-4--|
E|-------------------------------|-------------------------------|





e|------- ------- ------- -------|------- ------- ------- -------|
B|-------------------------------|-------------------------------|
G|-----------------------------2-|-----------------------------2-|
D|-------------------------------|-------------------------------|
A|0---0---0---0---0---0---2-3-4--|0---0---0---0---0---0---2-3-4--|
E|-------------------------------|-------------------------------|




e|------- ------- ------- -------|------- ------- ------- -------|
B|-------------------------------|-------------------------------|
G|-------------------------------|-------------------------------|
D|-------------------------------|-------------------------------|
A|-------------------------------|-------------------------------|
E|3---3---3-------3---3---3---3--|3---3---3-------3---3---3---3--|
  A7                              G6
e|0------ ------- ------- -------|0------ ------- ------- -------|
B|2------------------------------|0------------------------------|
G|0------------------------------|0------------------------------|
D|2------------------------------|0------------------------------|
A|0------------------------------|2------------------------------|
E|3------------------------------|3------------------------------|
  Hell        is  knowing that your face has gone     red




e|------- ------- ------- -------|------- ------- ------- -------|
B|-------------------------------|-------------------------------|
G|-------------------------------|-------------------------------|
D|-------------------------------|-------------------------------|
A|-------------------------------|-------------------------------|
E|3---3---3-------3---3---3---3--|3---3---3-------3---3---3---3--|
  A7                              G6         
e|0------ ------- ------- -------|0------ ------- ------- -------|
B|2------------------------------|0------------------------------|
G|0------------------------------|0------------------------------|
D|2------------------------------|0------------------------------|
A|0------------------------------|2------------------------------|
E|3------------------------------|3------------------------------|
            Discovering someone else  in      your    bed 



e|------- ------- ------- -------|------- ------- ------- -------|
B|-------------------------------|-------------------------------|
G|-------------------------------|-------------------------------|
D|-------------------------------|-------------------------------|
A|-------------------------------|-------------------------------|
E|3-------3---3-------3---3---3--|3-------3---3-------3---3---3--|
  A7          G6                  A7          G6 
e|0------ ----0-- ------- -------|0------ ----0-- ------- -------|
B|2-----------0------------------|2-----------0------------------|
G|0-----------0------------------|0-----------0------------------|
D|2-----------0------------------|2-----------0------------------|
A|0-----------2------------------|0-----------2------------------|
E|3-----------3------------------|3-----------3------------------|
  Baby,                           baby,


  (.

e|------- ------- ------- -------|------- ------- ------- -------|
B|2------------------------------|-------------------------------|
G|2------------------------------|-------------------------------|
D|4------------------------------|-------------------------------|
A|4------------------------------|-------------------------------|
E|2------------------------------|-------------------------------|
  F#m
e|2------ ------- ------- -------|------- ------- ------- -------|
B|2------------------------------|-------------------------------|
G|2------------------------------|-------------------------------|
D|4------------------------------|-------------------------------|
A|4------------------------------|-------------------------------|
E|2------------------------------|-------------------------------|
  This        kind        of      loveís    bringing down this 




e|------- ------- ------- ----5-7|8------ ------- ------- -------|
B|7------------------------------|-------------------------------|
G|-------------------------------|-------------------------------|
D|-------------------------------|-------------------------------|
A|-------------------------------|-------------------------------|
E|-------------------------------|-------------------------------|
  D                               Dsus4
e|2------ 2-----2 ----2-- --2----|3-----3 ----3-- --3---- 3------|
B|--3-------3-----3-----3-----3--|--3-----3-----3-----3-----3----|
G|-------------------------------|-------------------------------|
D|----0-------0-----0-----0-----0|----0-----0-----0-----0-----0--|
A|-------------------------------|-------------------------------|
E|-------------------------------|-------------------------------|
  man




e|------- ------- ------- -------|------- ------- ------- -------|
B|-------------------------------|-------------------------------|
G|-------------------------------|-----------------------------2-|
D|-------------------------------|-------------------------------|
A|0---0---0---0---0---0---0---0--|0---0---0---0---0---0---2-3-4--|
E|-------------------------------|-------------------------------|
  A                               D
e|------- --9---- 9-----9 ----9--10----10 ---10-- -10----10------|
B|-----------10----10----10----10|-10----10----10----10----10----|
G|--------9-----9-----9-----9----|---11----11----11----11----11--|
D|------------------
 Comments (click here to add a non-facebook comment)
Home | FAQs | Privacy | Terms | Contact
Top 100 Tab Sites