Give Kudos?
Are you sure you want to give kudos to waynusofuranus?

Add To Songbook?
Are you sure you want to add this song to your songbook?


466 bands | 1,714 songs
Search: Register FREE! | Login
Browse Songs:
Browse Bands:
Tool Panel
Discuss This Song

1 2 3 4 5





Easybeats - Remember Sam - Capo (Chord)
Submitter: waynusofuranus (64) on 6/18/05
Month Views: 16 | Total Views: 3,365
Moderator: kraziekhat | Report This Song?
Song Tools

Comment

Songbook

Kudos

Show Chords

Print

REMEMBER SAM
Written by Harry Vanda and George Young

4 beats per chord
` = 2 beats
(capo at fourth fret)

INTRO:
Gm(maj7)    Fm(maj7)    Gm(maj7)    Fm(maj7)

Dm    `C  `A7(b9)    Dm(maj7)    Dm

VERSE:  (swing eighths)
Dm        `A7sus4  `A7  Dm            `A7sus4  `A7
  Remember Sam            you took his hand
Gm             Bb              A7   A7
  You took his hand instead of mi-__ine

VERSE:
Dm        `A7sus4  `A7  Dm       `A7sus4  `A7
  Remember Mike     huh   a guy I like
Gm            Bb              A7sus4  `Dm  `G7
  You took in-side instead of me-______ee

PRE-CHORUS:
C            C             F      F
  But when I get around to ask you
C            C                   F  `Gm  `A7
  You turn a-round you smile and say you  say

VERSE:
Dm      `A7sus4  `A7  Dm         `A7sus4  `A7
  Little man            you under-stand
Gm           Bb              A7sus4  A7
  I'd really like to but I'm bu-____ sy

CHORUS:  (straight eighths)
Dm               `E7  `A  Dm               `E7  `A
Call me any Monday        busy every Tuesday
Dm              `E7  `A  Dm  NC
Maybe on a Friday        no___
                         (LICK)

INTERLUDE:
Go7    Go7    Go7    Go7
(LICK)        (LICK)

Dm    Dm    A7sus4    A7

VERSE:  (swing eighths)
Dm         `A7sus4  `A7  Dm              `A7sus4  `A7
  But now I see            you're foolin' me
Gm         Bb                A7sus4  A7
  You only want someone with mo-____ ney

VERSE:
Dm         `A7sus4  `A7  Dm           `A7sus4  `A7
  So little girl           I've had my fill
Gm          Bb              A7sus4  A7
  So if you want me you can call___ me

CHORUS:  (straight eighths)
Dm               `E7  `A  Dm               `E7  `A
Call me any Monday        busy every Tuesday
Dm              `E7  `A  Dm  NC
Maybe on a Friday        no___
                         (LICK)

CODA:  (repeat and fade)
Go7    Go7
(LICK)

================================================================================

CHORDS:
    Gm  Fm  Dm  C   A7  A7sus4  G7  Bb  F   E7  A  Go7
E|--3---1---1---0---0-----0-----1---1---1---0---0---3--|
B|--3---1---3---1---2-----3-----0---3---1---0---2---2--|
G|--3---1---2---0---0-----0-----0---3---2---1---2---3--|
D|--5---3---0---2---2-----2-----0---3---3---0---2---2--|
A|--5---3-------3---0-----0---------1---3---2---0------|
E|--3---1-----------------------3-------1---0----------|

LICK:
   1   2 + 3 + 4 +   1 + 2   3   4
E|-3---1-0-1-0-----|-----------------|
B|-------------3-2-|-3-2-------------|
G|-----------------|-----3---2-------|
D|-----------------|-----------------|
A|-----------------|-----------------|

INTRO:
Lead guitar adds wacky notes to the chords

   Gm      Fm      Gm      Fm      Dm      C  A7   Dm      Dm
E|-2==---|-0==---|-2==---|-0==---|-1==---|-0==3--|-1-----|-------|
B|-3-----|-1-----|-3-----|-1-----|-3-----|-1--2--|-2==---|-------|
G|-3-----|-1-----|-3-----|-1-----|-2-----|-0--3==|-2--2==|-------|
D|-5-----|-3-----|-5-----|-3-----|-0-----|-2--2--|-0-----|-------|
A|-------|-------|-------|-------|-------|-3--0--|-------|-------|
E|-------|-------|-------|-------|-------|-------|-------|-------|

The lead guitar plays a single note throughout the verse adding extensions
to the chords. Here's a way to mimic the ensemble sound:
Strum up on 2 and 4 emphasising the open 1st-string

   Dm(9)             A7sus4  A7        Gm6               Bb(#11)
   1   2   3   4     1   2   3   4     1   2   3   4     1   2   3   4
E|-1---0---1---0---|-0---0---0---0---|-----0-------0---|-----0-------0---|
B|-3-------3-------|-3-------2-------|-3-------3-------|-3-------3-------|
G|-2-------2-------|-0-------0-------|-3-------3-------|-x-------x-------|
D|-0-------0-------|-2-------2-------|-0-------0-------|-3-------3-------|
A|-----------------|-0-------0-------|-x-------x-------|-1-------1-------|
E|-----------------|-----------------|-3-------3-------|-----------------|


Waynus Of Uranus
June 2005
 
 Comments (click here to add a non-facebook comment)
Home | FAQs | Privacy | Terms | Contact
Top 100 Tab Sites