Give Kudos?
Are you sure you want to give kudos to waynusofuranus?

Add To Songbook?
Are you sure you want to add this song to your songbook?


466 bands | 1,714 songs
Search: Register FREE! | Login
Browse Songs:
Browse Bands:
Tool Panel
Discuss This Song

1 2 3 4 5





Easybeats - Remember Sam (Chord)
Submitter: waynusofuranus (58) on 6/18/05 1 comment
Month Views: 12 | Total Views: 2,757
Moderator: kraziekhat | Report This Song?
Song Tools

Comment

Songbook

Kudos

Show Chords

Print

REMEMBER SAM
Written by Harry Vanda and George Young

4 beats per chord
` = 2 beats

INTRO:
Bm(maj7)    Am(maj7)    Bm(maj7)    Am(maj7)

F#m    `E  `C#7(b9)    F#m(maj7)    F#m

VERSE:
F#m       `C#7sus4  `C#7  F#m           `C#7sus4  `C#7
  Remember Sam              you took his hand
Bm             D               C#7  C#7
  You took his hand instead of mi-__ine

VERSE:
F#m       `C#7sus4  `C#7  F#m      `C#7sus4  `C#7
  Remember Mike      huh    a guy I like
Bm            D               C#7sus4  `F#m  `B7
  You took in-side instead of me-_______ee

PRE-CHORUS:
E            E             A      A
  But when I get around to ask you
E            E                   A  `Bm  `C#7
  You turn a-round you smile and say you  say

VERSE:
F#m     `C#7sus4  `C#7  F#m        `C#7sus4  `C#7
  Little man              you under-stand
Bm           D               C#7sus4  C#7
  I'd really like to but I'm bu-_____ sy

CHORUS:
F#m              `G#7  `C#  F#m              `G#7  `C#
Call me any Monday          busy every Tuesday
F#m             `G#7  `C#  F#m  NC
Maybe on a Friday          no___
                           (LICK)

INTERLUDE:
Bo7    Bo7    Bo7    Bo7
(LICK)        (LICK)
B  G#  F  D  -bass

F#m    F#m    C#7sus4    C#7
C#-Bass

VERSE:
F#m        `C#7sus4  `C#7  F#m             `C#7sus4  `C#7
  But now I see              you're foolin' me
Bm         D                 C#7sus4  C#7
  You only want someone with mo-_____ ney

VERSE:
F#m        `C#7sus4  `C#7  F#m          `C#7sus4  `C#7
  So little girl             I've had my fill
Bm          D               C#7sus4  C#7
  So if you want me you can call____ me

CHORUS:
F#m              `G#7  `C#  F#m              `G#7  `C#
Call me any Monday          busy every Tuesday
F#m             `G#7  `C#  F#m  NC
Maybe on a Friday          no___
                           (LICK)

CODA:
Bo7    Bo7    Bo7    Bo7    Bo7    Bo7    Bo7  (fade)
(LICK)        (LICK)        (LICK)        (LICK)
B  G#  F  D  -bass

================================================================================

CHORDS:
    Bm  Am  F#m  E  C#7  C#7sus4  D    A  G#7  C#  Bo7
E|--7---5---9----7---9-----9------10---5---4---4---7--|
B|--7---5---10---9---9-----9------10---5---4---6---6--|
G|--7---5---11---9---10----11-----11---6---5---6---7--|
D|--9---7---11---9---9-----9------12---7---4---6---6--|
A|--9---7---9----7---10----10-----12---7---6---4------|
E|--7---5------------9-----9------10---5---4----------|

LICK:  (guitar and bass)
   1 + 2 + 3 + 4 +   1 + 2 + 3   4
E|-7---5-4-5-4-----|-----------------|
B|-------------7-6-|-7-6-------------|
G|-----------------|-----7---6-------|
D|-----------------|-----------------|
A|-----------------|-----------------|
E|-----------------|-----------------|
 |                 |                 |
G|---6-4-6-4-------|-----------------|
D|-----------7-6-7-|-6-4-3-----------|
A|-----------------|-------5-4-------|
E|-----------------|-----------------|

This spiteful sounding lick is based on the Arabic hijaz scale.
Or the fifth mode of the harmonic minor in western music.

Piano plays a part of this scale at the end of verse-1:
   C#7
   1   2   3   4     1   2   3   4
E|-----9-----------|-----------------|
B|---------12--9---|-----------------|
G|-----------------|-10--------------|
D|-----------------|-----12--11--9---|

The lead guitar adds important parts throughout the song.

INTRO:
Wacky notes added to the chords

   Bm      Am      Bm      Am      F#m     E  C#7  F#m     F#m
E|-------|-------|-------|-------|-------|----10-|-13----|-------|
B|-11----|-9-----|-11----|-9-----|-10----|-9-----|----14-|-------|
G|-------|-------|-------|-------|-------|-------|-------|-------|

VERSE: (2,3,4,5)
The note G# is added on Beat-2 and Beat-4 of EVERY chord

  F#m(9)    `C#7sus4  `C#7  F#m(9)   `C#7sus4  `C#7
    Remember Mike      huh    a guy I like
  Bm6          `D(#11) `Bm6      C#7sus4  `F#m(9)  `B7(13)
    You took in-side in-stead of me________ee

   F#m(9)            C#7sus4 C#7       Bm6               D(#11)
   1   2   3   4     1   2   3   4     1   2   3   4     1   2
E|-----------------|-----------------|-----------------|--------~~
B|-----9-------9---|-----9-------9---|-----9-------9---|-----9--~~
G|-----------------|-----------------|-----------------|--------~~
D|-----6-------6---|-----6-------6---|-----6-------6---|-----6--~~

INTERLUDE:  (bars 5,6,7,8)
The G# part is played on the 'and' of every beat

   F#m               C#7sus4           C#7
   1 + 2 + 3 + 4 +   1 + 2 + 3 + 4 +   1 + 2 + 3 + 4 +
E|-----------------|-----------------|-----------------|
B|---9---9---9---9-|---9---9---9---9-|---9---9---9---9-|
G|-----------------|-----------------|-----------------|
D|---6---6---6---6-|---6---6---6---6-|---6---6---6---6-|


Waynus Of Uranus
June 2005
 
 Comments (click here to add a non-facebook comment)
Great to play! Top tab.
-martink | 6/19/2005
Home | FAQs | Privacy | Terms | Contact
Top 100 Tab Sites