Give Kudos?
Are you sure you want to give kudos to pjvill?

Add To Songbook?
Are you sure you want to add this song to your songbook?


466 bands | 1,714 songs
Search: Register FREE! | Login
Browse Songs:
Browse Bands:
Tool Panel
Discuss This Song

1 2 3 4 5





Easybeats - Remember Sam (Tab)
Submitter: pjvill (8) on 11/24/05
Month Views: 18 | Total Views: 2,603
Moderator: kraziekhat | Report This Song?
Song Tools

Comment

Songbook

Kudos

Show Chords

Print

-------------------------------------------------------------------

  THE EASYBEATS - REMEMBER SAM (Vanda/Young) From FRIDAY ON MY MIND 
                  album. Released in 1967.

-------------------------------------------------------------------

  Tabbed by:PJVillanueva






       Vanda and Young didn't compose Friday On My Mind by chance.
       In a very short time they made a heap of stimulating three
       minute pop songs that can be considered today as real gems.
       Their chiming two guitar harmonies are very often just fine 
       and Remember Sam is a very good example.
     
        
         





Remember Sam
You took his hand
You took his hand instead of mine

Remember Mike, hah
A guy-uy-uy who took inside instead of me

But when I get around to ask you
You turn around, you smile and say
You say

You little man 
Do understand I'd really like to but I'm busy

Call me any monday. Busy every tuesday
Maybe on a friday. No

But now I see you're foolin' me
You only want someone with money

So little girl I've had my pill
So if you want me you can call me

Call me any monday. Busy every tuesday
Maybe on a friday. No






          Use a capo on the 2nd fret for both guitars.

        


                                    
  Ammaj7                          Gmmaj7
e|------- ------- ------- -------|------- ------- ------- -------|
B|-------------------------------|-------------------------------|
G|-------------------------------|-------------------------------|
D|-------------------------------|-------------------------------|
A|0------------------------------|-------------------------------|
E|-------------------------------|3------------------------------|

e|------- ------- ------- -------|------- ------- ------- -------|
B|-------------------------------|-------------------------------|
G|5------------------------------|3------------------------------|
D|6------------------------------|4------------------------------|
A|-------------------------------|-------------------------------|
E|-------------------------------|-------------------------------|

e|4------ ------- ------- -------|2------ ------- ------- -------|
B|5------------------------------|3------------------------------|
G|-------------------------------|-------------------------------|
D|-------------------------------|-------------------------------|
A|-------------------------------|-------------------------------|
E|-------------------------------|-------------------------------|






  Ammaj7                          Gmmaj7
e|------- ------- ------- -------|------- ------- ------- -------|
B|-------------------------------|-------------------------------|
G|-------------------------------|-------------------------------|
D|-------------------------------|-------------------------------|
A|0------------------------------|-------------------------------|
E|-------------------------------|3------------------------------|

e|------- ------- ------- -------|------- ------- ------- -------|
B|-------------------------------|-------------------------------|
G|5------------------------------|3------------------------------|
D|6------------------------------|4------------------------------|
A|-------------------------------|-------------------------------|
E|-------------------------------|-------------------------------|

e|4------ ------- ------- -------|2------ ------- ------- -------|
B|5------------------------------|3------------------------------|
G|-------------------------------|-------------------------------|
D|-------------------------------|-------------------------------|
A|-------------------------------|-------------------------------|
E|-------------------------------|-------------------------------|





                               (No root)
  Em                              Bm-9            Cdim
e|------- ------- ------- -------|------- ------- ------- -------|
B|-------------------------------|-------------------------------|
G|-------------------------------|-------------------------------|
D|-------------------------------|0------------------------------|
A|-------------------------------|----------------2--------------|
E|0------------------------------|-------------------------------|

e|------- ------- ------- -------|------- ------- ------- -------|
B|-------------------------------|----------------4--------------|
G|0------------------------------|5---------------2--------------|
D|2------------------------------|4------------------------------|
A|-------------------------------|-------------------------------|
E|-------------------------------|-------------------------------|


e|3------ ------- ------- -------|2------ ------- 8------ -------|
B|0------------------------------|4---------------7--------------|
G|0------------------------------|-------------------------------|
D|-------------------------------|-------------------------------|
A|-------------------------------|-------------------------------|
E|-------------------------------|-------------------------------|





  Em
e|7------ 7------ 7------ 7------|7------ 7------ 7------ 7------|
B|8-------8-------8-------8------|8-------8-------8-------8------|
G|9-------9-------9-------9------|9-------9-------9-------9------|
D|9-------9-------9-------9------|9-------9-------9-------9------|
A|-------------------------------|-------------------------------|
E|-------------------------------|-------------------------------|

e11------ ------- 7------ -------|------- ------- ------- -------|
B|8---------------8--------------|-------------------------------|
G|-------------------------------|-------------------------------|
D|-------------------------------|-------------------------------|
A|-------------------------------|-------------------------------|
E|-------------------------------|-------------------------------|






                                  Bsus4           B
e|7------ 7------ 7------ 7------|7------ 7------ 7------ 7------|
B|8-------8-------8-------8------|7-------7-------7-------7------|
G|9-------9-------9-------9------|9-------9-------8-------8------|
D|9-------9-------9-------9------|9-------9-------9-------9------|
A|-------------------------------|-------------------------------|
E|-------------------------------|-------------------------------|
              Rmember         Sam



  Em                              Bsus4           B
e|7------ 7------ 7------ 7------|7------ 7------ 7------ 7------|
B|8-------8-------8-------8------|7-------7-------7-------7------|
G|9-------9-------9-------9------|9-------9-------8-------8------|
D|9-------9-------9-------9------|9-------9-------9-------9------|
A|-------------------------------|-------------------------------|
E|-------------------------------|-------------------------------|
              You took his    hand



  Am                              Am7             Am      Am7
e|5------ 5------ 5------ 5------|------- ------- 5------ -------|
B|5-------5-------5-------5------|8-------8-------5-------8------|
G|5-------5-------5-------5------|5-------5-------5-------5------|
D|7-------7-------7-------7------|7-------7-------7-------7------|
A|-------------------------------|-------------------------------|
E|-------------------------------|-------------------------------|
              You took his    hand            instead     of 



  B7        
e|------- ------- ------- -------|------- ------- ------- 7------|
B10------10------10------10------10------10------10------10------|
G|8-------8-------8-------8------|8-------8-------8-------8------|
D|9-------9-------9-------9------|9-------9-------9-------9------|
A|-------------------------------|-------------------------------|
E|-------------------------------|---
 Comments (click here to add a non-facebook comment)
Home | FAQs | Privacy | Terms | Contact
Top 100 Tab Sites