Give Kudos?
Are you sure you want to give kudos to waynusofuranus?

Add To Songbook?
Are you sure you want to add this song to your songbook?


466 bands | 1,714 songs
Search: Register FREE! | Login
Browse Songs:
Browse Bands:
Tool Panel
Discuss This Song

1 2 3 4 5





Easybeats - She's So Fine (Chord)
Submitter: waynusofuranus (52) on 7/3/05 1 comment
Month Views: 36 | Total Views: 14,677
Moderator: kraziekhat | Report This Song?
Song Tools

Comment

Songbook

Kudos

Show Chords

Print

SHE'S SO FINE
Written by Stevie Wright and George Young

4 beats per chord                     1   2   3 + 4 +
. = staccato then tacet       LICK =  --TACET-- A A A#
                                                notes

INTRO:
LICK  B.  LICK  B.  LICK        B.  LICK
                    Wohaaarrrggghhhh

VERSE:
  B.                            LICK
I woke up bright and early this morning
B.                        LICK
My little girl was not in sight
B.               LICK
  I been looking everywhere
B.                   LICK
Morning noon and day-light 'cause she's so

CHORUS:
B   B          E      E
Fine  she's so fi-hine  well she's so
C#     C#   F#.                        LICK
Fi-hine  aah  she's so fine you know I wish she was mine

VERSE:
B.                    LICK
I've got something to tell her
     B.                     LICK
Yeah maybe she listen maybe not
B.                           LICK
I've loved that woman like-a never before
B.                        LICK
  Cause all my love she's got well she's so

CHORUS:
B   B          E      E
Fine  she's so fi-hine  heah she's so
C#     C#        F#.                        LICK
Fi-hine  woah-hoh  she's so fine you know I wish she was mine ah come

SOLO:
B  B/A  B  B/A  B  B/A  B  B/A
On Harry
B  A  B  A  B    A  B              A
One   two   three   six sorry Harry  well she's so

CHORUS:
B   B          E      E
Fine  she's so fi-hine  well she's so
C#     C#       F#.                        LICK
Fi-hine  aah-ooh  she's so fine you know I wish she was mine oh come

BREAK:
B.    LICK           B.   LICK
On woh  yeah oh come on on  heah she's so

CHORUS:
B   B          E      E
Fine  she's so fi-hine  yeah she's so
C#          C#      F#.                        LICK
Fi-yi-yi-yi-yine ooh  she's so fine you know I wish she was mine oh one

BREAK:
B.              LICK      B.      LICK
More 'kay let's go oh one more mmm  yeah she's so

CHORUS:
B   B          E      E
Fine  she's so fi-hine  well she's so
C#          C#     F#.                        LICK                     B.
Fi-yi-yi-yi-yine ah  she's so fine you know I wish she was mine that's all

================================================================================

CHORDS:
    B    E    C#   F#   A
E|--7----7----9----9----5--|
B|--7----9----9----11---5--|
G|--8----9----10---11---6--|
D|--9----9----11---11---7--|
A|--9----7----11---9----7--|
E|--7---------9---------5--|

   LICK              B
   1 + 2 + 3 + 4 +   1 + 2 + 3 + 4 +
E|-----------------|-----------------|
B|-----------------|-----------------|  ` = position shift
G|-----------------|-----------------|      slide and pick again
D|-----------------|-9---------------|
A|-----------0-----|-9---------------|  u = up pick
E|-------------5`6-|`7---------------|  d = down pick
             u d u   d

CHORUS rhythm part is a typical blues/boogie pattern in straight eighths.
Root-fifth barre chords with the little finger playing 6th and 7th.

   B
   1  +  2  +  3  +  4  +    1  +  2  +  3  +  4  +
E|-------------------------|-------------------------|
B|-------------------------|-------------------------|
G|-------------------------|-------------------------|
D|-------------------------|-------------------------|
A|-9--9--11----12----11-9--|----9--11----12----11----|
E|-7--7--7--7--7--7--7--7--|-7--7--7--7--7--7--7--7--|

   E
   1  +  2  +  3  +  4  +    1  +  2  +  3  +  4  +
E|-------------------------|-------------------------|
B|-------------------------|-------------------------|
G|-------------------------|-------------------------|
D|-9--9--11----12----11-9--|----9--11----12----11----|
A|-7--7--7--7--7--7--7--7--|-7--7--7--7--7--7--7--7--|
E|-------------------------|-------------------------|

   C#                                                  F#
   1  +  2  +  3  +  4  +    1  +  2  +  3  +  4  +    1
E|-------------------------|-------------------------|-------
B|-------------------------|-------------------------|-11----
G|-------------------------|-------------------------|-11----
D|-------------------------|-------------------------|-11----
A|-11-11-13----14----13-11-|----11-13----14----13----|-9-----
E|-9--9--9--9--9--9--9--9--|-9--9--9--9--9--9--9--9--|-------

SOLO:
Mainly B-minor pentatonic scale in seventh (VII) position
with added second (C#) sixth (G#) and flat fifth (F)
Momentary shifts to tenth (X) and fifth (V) position

E|-O-|---|-O-|---|-X-|-O-|---|-O-|
B|---|-X-|-O-|---|-X-|-O-|---|-O-|
G|---|-X-|-O-|---|-O-|-X-|-O-|---|
D|---|---|-O-|---|-O-|---|---|---|
A|---|---|-O-|---|-O-|---|---|---|
E|---|---|---|---|---|---|---|---|
     5   6   7   8   9   10  11  12

  (VII)                     (X)    (VII)
   1 + 2 + 3 + 4 +   1 + 2 + 3 + 4  e +    1 + 2 + 3 + 4 +   1 + 2 + 3 + 4 +
E|-----------------|---------------------|-----------------|-----7-----------|
B|-----------------|-------7---10--------|---9br-7---7-----|---7-----7-------|
G|---------7---7-9B|---7----g11--11\9-7--|---9br-7---7-----|-7-----10--9B-B9r|
D|-----7-9---9-----|---------------------|---------9-----9-|-----------------|
A|--g9-------------|---------------------|-----------------|-----------------|
E|-----------------|---------------------|-----------------|-----------------|
                            (X)                 (VII)
   1 + 2 + 3 + 4 +   1 + 2 + 3   4   +    1 + 2  e  +  3  e + 4 +   1 + 2 + 3 + 4
E|-----------------|-----7---10--12BrB--|-r-10--------------------|-----------------|
B|-----------------|-----7-9------------|-----12\10-7-------------|-----7-7-----7---|
G|-9Br-7---7-9-B-r-|-7------------------|--------------10p9-7---7-|-----7-7-----7---|
D|-------9---------|---9----------------|---------------------9---|---9-------9-----|
A|-----------------|--------------------|-------------------------|-----------------|
E|-----------------|--------------------|-------------------------|-----------------|
    (V)   (VII)
   1 + 2 + 3 + 4 +   1 + 2  + 3 + 4 +   1   2 + 3 + 4 +   1 + 2 + 3 + 4
E|---5---5/7-7---7-|-7-9-10-9-7-------|-----------------|-----------------|
B|---6/7--/7-7-7-7-|-7-9-10-9-7-9-----|-----------------|-----------------|
G|---6-------------|------------9---7-|-----7-9h10--9b-r|-7---------------|
D|-----------------|------------------|-----------------|---9---7-----7---|
A|-----------------|------------------|-----------------|-----9-----9-----|
E|-----------------|------------------|-----------------|-----------------|
                             rake-up
   1 + 2 + 3 + 4     1 + 2 + 3   4     1 + 2 + 3  + 4 +   1 + 2 + 3  + 4
E|-----------7-----|---------7-------|------------------|-----------------|
B|-----------------|---------7-------|------------------|-----------------|
G|-----7-9b---b9---|---9-b-rb9---r---|-9Br-7---10br-7---|-------9h10-7-9--|
D|---9-------------|-----------------|-------9--------9-|---7-9-----------|
A|-----------------|-----------------|------------------|-----------------|
E|-----------------|-----------------|------------------|-----------------|

  g = grace note (slide from whole step lower)
\ / = slide (target note is not picked)
  h = hammer on
  p = pull off
  B = whole step bend     before fret number
  b = half step bend      indicates pre-bend
  r = release bend

================================================================================

Bass part is a walking figure played identically for each chord.
Chromatic notes are added after the first chorus.

CHORUS-1:
   B
   1 + 2 + 3 + 4 +
G|-----------------|
D|-------------6---|
A|-----6-6-9-9---9-|
E|-7-7-------------|

CHORUS:
   B
   1 + 2 + 3 + 4 +   1 + 2 + 3 + 4 +
G|-----------------|-----------------|
D|-------------6-6-|-7-7-8-8-9-7-6---|
A|-----6-6-9-9-----|---------------9-|
E|-7-7-------------|-----------------|

"Solo" figure is slightly different at the end of each chorus:

CHORUS-1:
   F#                                    B
   1 + 2 + 3 + 4  +    1 + 2 + 3 + 4 +   1
G|-------------------|-----------------|------
D|-----8---9-9-10h11-|-----8---11--9p8-|------
A|-9-9---9-----------|-9-9---9---------|------
E|-------------------|-----------------|-7----

CHORUS-2:
   F#                                        B
   1 + 2 + 3 + 4  +    1  +  2 + 3 + 4  +    1
G|-------------------|-------8-8-9---11-11-|------
D|-----8-8-9-9-10-10-|-11-11---------------|------
A|-9-9---------------|---------------------|------
E|-------------------|---------------------|-7----

CHORUS-3:
   F#                                          B
   1 + 2 +  3 +  4  +     1  + 2 +  3 + 4  +   1
G|------------8h-9h-10h-|-11-9-8-------------|------
D|---8h9-10h11----------|--------11-9-8------|------
A|-9--------------------|---------------11-9-|------
E|----------------------|--------------------|-7----

CHORUS-4:
   F#                                       B
   1 + 2 + 3 + 4  +    1  + 2 +  3 + 4  +   1
G|-------------------|--------------------|------
D|-----8-8-9-9-10-10-|-11-9-8-------------|------
A|-9-9---------------|--------11`9-7------|------
E|-------------------|---------------10-9-|-7----

ENDING:
   F#                                        B
   1 + 2 + 3 + 4  +    1  +  2 + 3 + 4  +    1
G|-------------------|-11-11-9-9-8-8-------|------
D|-----8-8-9-9-10-10-|---------------11-11-|------
A|-9-9---------------|---------------------|------
E|-------------------|---------------------|-7----

SOLO:
   B                 A
   1   2 + 3 + 4 +   1   2 + 3 + 4 +
G|-----------------|-----------------|
D|-----------------|-----------------|
A|-----------------|-----------------|
E|-7-----7---7-7-6-|-5-----5---5-5-6-|


Waynus Of Uranus
July 2005
 
 Comments (click here to add a non-facebook comment)
Keep 'em coming Waynus
-martink | 7/3/2005
Home | FAQs | Privacy | Terms | Contact
Top 100 Tab Sites