Give Kudos?
Are you sure you want to give kudos to pjvill?

Add To Songbook?
Are you sure you want to add this song to your songbook?


466 bands | 1,714 songs
Search: Register FREE! | Login
Browse Songs:
Browse Bands:
Tool Panel
Discuss This Song

1 2 3 4 5





Easybeats - Who'll Be The One (Tab)
Submitter: pjvill (8) on 11/25/05
Month Views: 14 | Total Views: 3,330
Moderator: kraziekhat | Report This Song?
Song Tools

Comment

Songbook

Kudos

Show Chords

Print

------------------------------------------------------------------------

  THE EASYBEATS - WHO'LL BE THE ONE (Vanda/Young) From FRIDAY OF MY MIND 
                  album. Released in 1967.

------------------------------------------------------------------------

  Tabbed by:PJVillanueva







All my life I've been searchin'
For someone to love, to love me
Like I love you

I've been there and I've been 'round
I've been lost and I've been found
Still I can't find anyone like you

When you jump so long metter
(Who'll be the one you love)
Maybe be me, wish you could see
There musn't be what you need
(Who'll be the one you love)

There ain't nothing else let me plea
I step lovin' and you don't see
(Who'll be the one you love 
 Who'll be the one you love)

All my nights I've been thinking
Of some way to have you
But I can't wait 'cause I'm not lost for time

Honey it's our time, wait no more
(Who'll be the one you love)
Runnig from London, am I to fall too
Some of our fault is on your frown  
(Who'll be the one you love)

There ain't nothing that you can do
And I got so greased for you
(I'll be the one you love
 I'll be the one you love)

There's a smile upon your face today
You're hearin' everything I say today
You're the girl that's gonna live with me
'Cause I want you. Da da dee a da da da
                   Da da dee a da da da da da dee
                   A  da da da da Ahahahahahahah

Who'll be the one you love
Who'll be the one you love
I'll be the one you love (doo doo doo)
I'll be the one you love (doo doo doo)
I'll be the one you love (doo doo doo)
I'll be the one you love (doo doo doo)






  12/8

                                     
  
e|8----- ------ ------ ------|------ ------ ------ ------|
B|---------------------------|---------------------------|
G|-------5------8------7-----|8------7------8------7-----|
D|---------------------------|---------------------------|
A|---------------------------|---------------------------|
E|---------------------------|---------------------------|




e|8----- ------ ------ ------|------ ------ ------ ------|
B|---------------------------|---------------------------|
G|-------5------8------7-----|8------7------8------7-----|
D|---------------------------|---------------------------|
A|---------------------------|---------------------------|
E|---------------------------|---------------------------|



  
e|------ ------ ------ ------|------ ------ ------ ------|
B|---------------------------|---------------------------|
G|---------------------------|---------------------------|
D|---------------------------|---------------------------|
A|3---3--3---3--3---3--3---3/|6---6--6---6--6---6--6---6-|
E|---------------------------|---------------------------|
  All my     life   I've been searchin'                for
e|------ ------ ------ ------|------ ------ ------ ------|
B|---------------------------|--4------4------4------4---|           
G|--5------5------5------5---|--5------5------5------5---|
D|---------------------------|---------------------------|
A|---------------------------|---------------------------|
E|---------------------------|---------------------------|




  
e|------ ------ ------ ------|------ ------ ------ ------|
B|---------------------------|---------------------------|
G|---------------------------|---------------------------|
D|3---3--3---3--3---3--3---3-|4---4--4---4--4---4--4---4-|
A|---------------------------|---------------------------|
E|---------------------------|---------------------------|
  someone                  to     love,                to 
e|------ ------ ------ ------|------ ------ ------ ------|
B|--6------6------6------6---|--7------7------7------7---|
G|--7------7------7------7---|--7------7------7------7---|
D|---------------------------|--7------7------7------7---|
A|---------------------------|---------------------------|
E|---------------------------|---------------------------|



  
e|------ ------ ------ ------|------ ------ ------ ------|
B|---------------------------|---------------------------|
G|---------------------------|---------------------------|
D|---------------------------|---------------------------|
A|7---7--7---7--7---7--7---7-|7---7--7---7--7---7--7---7\|
E|---------------------------|---------------------------|
  love me                         like   I         love
e|------ ------ ------ ------|------ ------ ------ ------|
B|--5------5------5------5---|--5------5------5------5---|
G|--6------6------6------6---|--6------6------6------6---|
D|--7------7------7------7---|--7------7------7------7---|
A|---------------------------|---------------------------|
E|---------------------------|---------------------------|



  
e|------ ------ ------ ------|------ ------ ------ ------|
B|---------------------------|---------------------------|
G|---------------------------|---------------------------|
D|---------------------------|---------------------------|
A|5---5--5---5--5---5--5---3-|5---5--5---5--5---5--5---5-|
E|---------------------------|---------------------------|
  you
e|------ ------ ------ ------|------ ------ ------ ------|
B|---------------------------|---------------------------|
G|--7------7------7------7---|--7------7------7------7---|
D|---------------------------|---------------------------|
A|---------------------------|---------------------------|
E|---------------------------|---------------------------|  





e|------ ------ ------ ------|------ ------ ------ ------|
B|---------------------------|---------------------------|
G|---------------------------|---------------------------|
D|2--------------------------|---------------------------|
A|3---3--3---3--3---3--3---3/|6---6--6---6--6---6--6---6-|
E|---------------------------|---------------------------|
  I've been  there        and I've been 'round
e|------ ------ ------ ------|------ ------ ------ ------|
B|5--------------------------|4---4----4------4------4---|
G|5---5----5------5------5---|---------------------------|
D|---------------------------|---------------------------|
A|---------------------------|---------------------------|
E|---------------------------|---------------------------|




  
e|------ ------ ------ ------|------ ------ ------ ------|
B|---------------------------|---------------------------|
G|---------------------------|---------------------------|
D|3---3--3---3--3---3--3---3-|4---4--4---4--4---4--4---4-|
A|---------------------------|---------------------------|
E|---------------------------|---------------------------|
  I've been  lost         and I've been  found
e|------ ------ ------ ------|------ ------ ------ ------|
B|6--------------------------|7---7----7------7------7---|
G|7---7----7------7------7---|7--------------------------|
D|---------------------------|---------------------------|
A|---------------------------|---------------------------|
E|---------------------------|---------------------------|



  
e|------ ------ ------ ------|------ ------ ------ ------|
B|---------------------------|---------------------------|
G|---------------------------|---------------------------|
D|---------------------------|---------------------------|
A|7---7--7---7--7---7--7---7-|7---7--7---7--7---7--7---7\|
E|---------------------------|---------------------------|
  Still I    can't  find      anyone            like 
e|------ ------ ------ ------|------ ------ ------ ------|
B|5---5----5------5------5---|--5------5------5------5---|
G|6--------------------------|---------------------------|
D|7--------------------------|---------------------------|
A|---------------------------|---------------------------|
E|---------------------------|---------------------------|



  
e|------ ------ ------ ------|------ ------ -----
 Comments (click here to add a non-facebook comment)
Home | FAQs | Privacy | Terms | Contact
Top 100 Tab Sites