Give Kudos?
Are you sure you want to give kudos to Freezex61?

Add To Songbook?
Are you sure you want to add this song to your songbook?


472 bands | 1,727 songs
Search: Register FREE! | Login
Browse Songs:
Browse Bands:
Tool Panel
Discuss This Song

1 2 3 4 5



Hush - Bonie Moronie (Chord)
Submitter: Freezex61 (1) on 4/30/19
Month Views: 61 | Total Views: 67
Help! We need a moderator for this artist. | Report This Song?
Song Tools

Comment

Songbook

Kudos

Show Chords

Print

BONY MORONIE - Hush 	  	 Tabbed by Freezex61



                Riff 1 	  	  	     Riff 2 	  	       
e-------------------------------I------------------------------
D------------------------------I------------------------------
G-------------------------------I----------1-4-4-2-1-----1-----
D----------1-4-4-2-1-----1-----I-----1-4-------------4-----4--
A-----1-4--------------4-----4--I--2---------------------------
E-2-----------------------------I------------------------------


        Riff 3
e-------------------4---
D------------------6---
G-------------------6---
D----------1-------6---
A------1-4----------4---
E---2-------------------


F#                                              (RIFF 1)
I gotta gal named Bony Moronie
F#                                              (RIFF 1)      
Well she's as skinny as a stick of macaroni
B                                               (RIFF 2)  
You oughta see her rock it with her blue jeans on
F#                                             (RIFF 1)
She's not very fat, just skin and bone



Chorus:
C#                B           C#                 B
Well I love her, she loves me, oh how happy now, we can be
F#                                     (RIFF 1)  (RIFF 3) 
Making' love underneath the apple tree.
 

She's my one and only, she's my heart's desire
She's a real upsetter, she's a real live wire
Everybody turns when my baby walks by
She's something to see that really catches your eye
And I love her, she loves me, oh how happy now, we can be
Making' love underneath the apple tree.   

Rock on now


SOLO:  Over Verse
 

I said I love her, she loves me, 
oh, oh, oh, oh, oh, oh, oh, oh, oh, oh, oh, oh, oh, 
Makin', Makin',Makin',Makin',Makin',Makin',Makin',    

(The turn around)
e---------------------------------------------------------
D--------------------------------------------------------
G--------------------------------------3-6-6-4-3-----3----
D---------1-4-4-2-1-----1------3-6---------------6-------
A----1-4--------------4-----4-----------------------------
E-2------------------------------------------------------

e---------------------------------------------------------
D--------------------------------------------------------
G------------8--------------7--------------8-11-11--------
D----5-8----------7-10------------8-11--------------------
A-6-------------8---------------9-------------------------
E---------------------------------------------------------

e-------------------------------------4-------------------
D------------------------------------6-------------------
G--9-8------8--------------8----------6-------------------
D------11-----------8-11-------------6-------------------
A-----------------9-------------------4-------------------
E---------------------------------------------------------


Well I told her mama, and her papa too
Well just exactly what I'm gonna do
I Gonna get married on a night in June
And rock and roll by the silvery moon


I love her, she loves me, 
oh oh oh happy , we can be
Making' oh Makin'  under oh no.
I said we're Making' oh whoopee under the oh yeah


e--------------------------------------------------------------------------------
D-------------------------------------------------------------------------------
G--------------------------------------------------------------------------------
D-11--11--11--11--10---9---8--8--10---8---8--8--10--8---6--6--8--6---6--6--8--6-
A---9---9---9---9---8---7---6--6---6---6---6--6--6---6---4--4--4--4---4--4--4--4-
E--------------------------------------------------------------------------------

e---------------------------------------------------------------2-----------
D--------------------------------------------------------------2-----------
G---------------------------------------------------------------3-----------
D--------------------------------------------------------------4----------
A--------1--1----2--2----3--3----4----2----1--------------------4-----------
E-2--2---------------------------------------------2------------2------------
 
 Comments (click here to add a non-facebook comment)
Home | FAQs | Privacy | Terms | Contact
Top 100 Tab Sites