Give Kudos?
Are you sure you want to give kudos to lrmorris?

Add To Songbook?
Are you sure you want to add this song to your songbook?


492 bands | 1,865 songs
Search: Register FREE! | Login
Browse Songs:
Browse Bands:
Tool Panel
Discuss This Song

1 2 3 4 5



JEFF BECK - Tallyman (Tab)
Submitter: lrmorris (1) on 6/15/12
Month Views: 8 | Total Views: 2,982
Help! We need a moderator for this artist. | Report This Song?
Song Tools

Comment

Songbook

Kudos

Show Chords

Print

JEFF BECK - TALLYMAN
INTRO: D (Bass - D, C, B, A), G (Bass- G, F, E, D)
D add 4th while holding D chord also play G on 1st string), D/C - same as above but use C on 5th string for Bass note, G add9 (add A on 1st string), A Add9 (add B on 1st string)
Verses:
(D)To our (G)house on a (D)friday
A man calls (G)every (D)week
(D)We give him a (Em)pound
When he (G)calls on his (D)round

(fill 1)
(Bm)With his plan (E)he carries all we're needing
(Bm)With his plan (E) most anything is ours(D)
Fill 2
(G)He's the Tallyman
(F#m) Oh yeah
(G)He's the Tallyman(A x 2)

repeat intro
   Solo
-|----10------------------|----10----------------|----------------------------
-|-10----8-10-12-10-8-10-7|-10----8-10-12-10-8-10|----------------------------
-|------------------------|----------------------|----------------------------
-|------------------------|----------------------|----------------------------
-|------------------------|----------------------|----------------------------
-|------------------------|----------------------|----------------------------
                                                                              
-|-14-12-14-12-12-10----10\9/10|----------------------------------------------
-|-------------------12-10\9/10|----------------------------------------------
-|-----------------------------|----------------------------------------------
-|-----------------------------|----------------------------------------------
-|-----------------------------|----------------------------------------------
-|-----------------------------|----------------------------------------------
repeat intro and finish on D
   Fill 1   Fill 2        Fill 3
-|-10-9-7-|-------------|----10/12-12-10-14-10|-------------------------------
-|--------|-10-8-7-5-7--|-10------------------|-------------------------------
-|--------|------------7|---------------------|-------------------------------
-|--------|-------------|---------------------|-------------------------------
-|--------|-------------|---------------------|-------------------------------
-|--------|-------------|---------------------|-------------------------------
 Comments (click here to add a non-facebook comment)
Home | FAQs | Privacy | Terms | Contact
Top 100 Tab Sites