Give Kudos?
Are you sure you want to give kudos to EMRLDEYZS?

Add To Songbook?
Are you sure you want to add this song to your songbook?


466 bands | 1,715 songs
Search: Register FREE! | Login
Browse Songs:
Browse Bands:
Tool Panel
Discuss This Song

1 2 3 4 5





Kasey Chambers - Don't Go (Tab)
Submitter: EMRLDEYZS (185) on 12/29/04
Month Views: 21 | Total Views: 3,963
Moderator: EMRLDEYZS | Report This Song?
Song Tools

Comment

Songbook

Kudos

Show Chords

Print

Intro:

e|--------0---|-------0----|-------0----|-------0----|
B|----------3-|----------3-|----------3-|----------3-|
G|-----2------|---2--------|----2-------|----2-------|
D|--0---------|-0----------|--0---------|-0----------|
A|------------|------------|------------|------------|
E|------------|------------|------------|------------|
VERSE:                                   As your....

e|--------0---|--------0---|--------2---|-------2----|-------3----|
B|----------3-|----------3-|----------3-|----------3-|----------3-|
G|-----2------|-----2------|-----2------|-----2------|-----2------|
D|--0---------|--0---------|--0---------|--0---------|--0---------|
A|------------|------------|------------|------------|------------|
E|------------|------------|------------|------------|------------|
  disappearing  Im hearing   All I wanted you to say .......

e|-------3----|-------3----|-------3----|-------0----|-------0----|
B|----------3-|----------3-|----------3-|----------3-|----------3-|
G|-----2------|-----2------|-----2------|-----2------|-----2------|
D|--0---------|--0---------|--0---------|--0---------|--0---------|
A|------------|------------|------------|------------|------------|
E|------------|------------|------------|------------|------------|
.................................. I should focus more on the thought of

e|-------2----|-------2----|-------3----|-------3----|-------3----|
B|----------3-|----------3-|----------3-|----------3-|----------3-|
G|-----2------|-----2------|-----2------|-----2------|-----2------|
D|--0---------|--0---------|--0---------|--0---------|--0---------|
A|------------|------------|------------|------------|------------|
E|------------|------------|------------|------------|------------|
  lettin you just slip away.....................................

e|-------3----|-------0----|-------0----|-------0----|-------0----|
B|----------3-|----------2-|----------2-|----------2-|----------2-|
G|-----2------|-----2------|-----2------|-----2------|-----2------|
D|--0---------|--2---------|--2---------|--2---------|--2---------|
A|------------|------------|------------|------------|------------|
E|------------|------------|------------|------------|------------|
                But I get this strange feeling...your not reveiling

e|-------3----|-------3----|-------3----|-------3----|-------0----|
B|----------3-|----------3-|----------3-|----------3-|----------2-|
G|-----2------|-----2------|-----2------|-----2------|-----2------|
D|--0---------|--0---------|--0---------|--0---------|--2---------|
A|------------|------------|------------|------------|------------|
E|------------|------------|------------|------------|------------|
     everything you wanted to say                    So its just a

e|-------0----|-------0----|-------0----|-------3----|-------3----|
B|----------2-|----------2-|----------2-|----------3-|----------3-|
G|-----2------|-----2------|-----2------|-----2------|-----2------|
D|--2---------|--2---------|--2---------|--0---------|--0---------|
A|------------|------------|------------|------------|------------|
E|------------|------------|------------|------------|------------|
  little harder for me to play the part of watchin you walk away...


Chorus:


e|-------3----|-------0----|-------2----|--------2----|-----------|
B|----------3-|----------3-|----------3-|-----------3-|-----------|
G|-----2------|-----2------|-----2------|-----2-------|-----------|
D|--0---------|--0---------|--0---------|--0----------|-----------|
A|------------|------------|------------|-------------|-----------|
E|------------|------------|------------|-------------|-----------|
.............  So before you disappear again 

e|-------3----|-------0----|-------2----|--------2----|---------3-|
B|----------3-|----------3-|----------3-|-----------3-|-----------|
G|-----2------|-----2------|-----2------|-----2-------|-------0---|
D|--0---------|--0---------|--0---------|--0----------|-----0-----|
A|------------|------------|------------|-------------|---2-------|
E|------------|------------|------------|-------------|-3---------|
...............just think of what your feeling and don't go

e|-------3----|-------0----|-------2----|--------2----|-----------|
B|----------3-|----------3-|----------3-|-----------3-|-----------|
G|-----2------|-----2------|-----2------|-----2-------|-----------|
D|--0---------|--0---------|--0---------|--0----------|-----------|
A|------------|------------|------------|-------------|-----------|
E|------------|------------|------------|-------------|-----------|
..............There's more to what your telling me

e|-------3----|-------0----|-------2----|--------2----|---------3-|
B|----------3-|----------3-|----------3-|-----------3-|-----------|
G|-----2------|-----2------|-----2------|-----2-------|-------0---|
D|--0---------|--0---------|--0---------|--0----------|-----0-----|
A|------------|------------|------------|-------------|---2-------|
E|------------|------------|------------|-------------|-3---------|
.............I'm not buy what your selling me don't go


As your disappearing I'm hearing
All I wanted you to say
I should focus more on the thought of
letting you just slip away
But I get this strange feeling your not revealing
Everything you wanted to say
So it's just a little harder for me to play the part of
Watching you walk away 

So before you disappear again
Just think of what you're feeling and don't go
There's more to what your telling me
I'm not buy what your selling me don't go 

Don't you understand that I'm stranded
In a feeling I can't shake
Don't you realise that I'm frightened 
Of all the things your gonna to take
And now you seem so distant so much more resistant
To ever let the feeling show
So it's hard for me to face it
Even less replace it
Everything your letting go 

So before you disappear again
Just think of what you're feeling and don't go
There's more to what your telling me
I'm not buy what your selling me don't go
 Comments (click here to add a non-facebook comment)
Home | FAQs | Privacy | Terms | Contact
Top 100 Tab Sites