Give Kudos?
Are you sure you want to give kudos to eric wilson?

Add To Songbook?
Are you sure you want to add this song to your songbook?


466 bands | 1,714 songs
Search: Register FREE! | Login
Browse Songs:
Browse Bands:
Tool Panel
Discuss This Song

1 2 3 4 5





Kasey Chambers - Hollywood (Tab)
Submitter: eric wilson (3) on 11/26/04
Month Views: 13 | Total Views: 2,323
Moderator: EMRLDEYZS | Report This Song?
Song Tools

Comment

Songbook

Kudos

Show Chords

Print

Hollywood - Kasey Chambers
Key= G

This is the main acoustic picking pattern throughout this song.

This is almost all palm muted. Only the bass note is allowed to ring slightly. 
Except over the first G position, that entire one is palm muted.
 

Now for a note on the chords, the ones I have written are correct as to
 the position and implied tonality of the progression. 
If you look at the chords TCowgirl submitted you will see the intro progression is 
G, Em, C and D. I have a Gmaj7/F# over the Em because Em is the natural 
minor of Gmaj and the implied tonality is that of Gmaj. And the Em7 over 
the C because Em7 is the relative minor of C or in this case a Cadd9 is 
used but with an E base which makes an Em7. Basically the entire riff is a
 chord with descending bass line. 
Hopefully that explains why or how it works.:)



For the first time:
  Dsus4           Gmaj7/F#        Em7             D
E------------------------------------------------------------------
B-----3-------3-------3-------3-------3-------3-------3-------3----
G---0---0---0---0---0---0---0---0---0---0---0---0---2---2---2---2--
D-0-------0-------4-------4-------2-------2-------0-------0--------
A------------------------------------------------------------------
E------------------------------------------------------------------

For the rest of the song this riff is played like this: (only the first part is changed)
  G               Gmaj7/F#        Em7             D
E-----------------------------------------------------------------
B-----3-------3-------3-------3-------3-------3-------3-------3----
G---0---0---0---0---0---0---0---0---0---0---0---0---2---2---2---2--
D-5-------5-------4-------4-------2-------2-------0-------0--------
A-----------------------------------------------------------------
E-----------------------------------------------------------------
 Comments (click here to add a non-facebook comment)
Home | FAQs | Privacy | Terms | Contact
Top 100 Tab Sites