Give Kudos?
Are you sure you want to give kudos to Cspirits?

Add To Songbook?
Are you sure you want to add this song to your songbook?


466 bands | 1,714 songs
Search: Register FREE! | Login
Browse Songs:
Browse Bands:
Tool Panel
Discuss This Song

1 2 3 4 5





Kasey Chambers - If I Were You (intro) (Tab)
Submitter: Cspirits (3) on 8/13/03
Month Views: 15 | Total Views: 2,269
Sound Byte: Listen
Moderator: EMRLDEYZS | Report This Song?
Song Tools

Comment

Songbook

Kudos

Show Chords

Print

This is the intro, as well as the guitar fills throughout the song
Repeat this section once. 

CAPO 3

E||--------------------|--------------------|--------------------|
B||--------------------|--1h-0--------------|-----------1--------|
G||-----------0--------|----------2----0----|--------0-----------|
D||--------0-----------|--------------------|--0h-2--------------|
A||--0h-2--------------|--------------------|--------------------|
E||--------------------|--------------------|--------------------|


                             
--------------------|------||
--1h-0--------------|------||
----------2----0----|------||
--------------------|------||
--------------------|------||
--------------------|------||
 Comments (click here to add a non-facebook comment)
Home | FAQs | Privacy | Terms | Contact
Top 100 Tab Sites