Give Kudos?
Are you sure you want to give kudos to texasisalive?

Add To Songbook?
Are you sure you want to add this song to your songbook?


466 bands | 1,714 songs
Search: Register FREE! | Login
Browse Songs:
Browse Bands:
Tool Panel
Discuss This Song

1 2 3 4 5





Kasey Chambers - Mr Baylis (Bass)
Album: The Captain (2000)
Submitter: texasisalive (11) on 8/11/03
Month Views: 26 | Total Views: 3,542
Moderator: EMRLDEYZS | Report This Song?
Song Tools

Comment

Songbook

Kudos

Show Chords

Print

MR BAYLIS  Kasey Chambers


Listen to the song to get the timing just right.

INTRO
G--------------------|-------8--6--------------
D-9--8--6--4--2-2---|-9--8--------2--2--------
A---------------2----|---------------2---------
E--------------------|-------------------------

VERSE
G--------------------|-------------------------
D-4-4-2-2-2/4--------|-4-2---------------------
A-------------2--0-2-|-----2--0-2-2------------
E--------------------|-------------------------

G----------------------------------------------
D-2--2/6-4---------2--0/2-4---4----------------
A-----------2-1-------------4------------------
E---------------4------------------------------

CHORUS
G----------------------------------------------
D---------2-2-4-4----------2---4---------------
A-2-2-4-4----------2-1-------2---4-------------
E----------------------4-4---------------------

G----------------------------------------------
D---------2--2-4------------2---2---2---4------
A-2-2-4-4---2----4--2-1-------2---2---4--------
E-----------------------4-2--------------------

INTRO again

VERSE again

CHORUS again, then,

G--------------------|-------------------------
D-9--8--6--4--2-2---|-9--8--6--4--2--2--------
A---------------2----|---------------2---------
E--------------------|-------------------------

G----------------------------------------------
D-9--9--9--9--4--4--2--2----------2---2--------
A-------------------------2-1-------2----------
E-----------------------------4-2--------------

REST 8 BARS

G----------------------------------------------
D-------------------------------/2--2-4--------
A--0-2-2-4-4-2-2-1-1--2-1----------------------
E-2-----------------------4-2-0----------------

G--------------------|-------8--6--------------
D-9--8--6--4--2-2---|-9--8--------2-----------
A---------------2----|---------------2---------
E--------------------|-----------------2-0-----

LET OPEN E RING
 Comments (click here to add a non-facebook comment)
Home | FAQs | Privacy | Terms | Contact
Top 100 Tab Sites