Give Kudos?
Are you sure you want to give kudos to lrmorris?

Add To Songbook?
Are you sure you want to add this song to your songbook?


492 bands | 1,865 songs
Search: Register FREE! | Login
Browse Songs:
Browse Bands:
Tool Panel
Discuss This Song

1 2 3 4 5



La De Das - Gonna See My Baby Tonight (Chord)
Submitter: lrmorris (1) on 11/11/11
Month Views: 24 | Total Views: 7,733
Help! We need a moderator for this artist. | Report This Song?
Song Tools

Comment

Songbook

Kudos

Show Chords

Print

Kevin Borich / La De Das - Gonna See My baby Tonight
Album: Decade - compilation
Transcribed by: John Cupitt
(submitted by L Morrison)
these are the chord charts to the 'jazzy' chords in the intro
of this song, and the chords to the main part.

  CMaj7   C9/13   F      A7    Bb7   A13    D9      
-|------|--3-5--|-1----|-5---|-6---|-5----|--5-7-|----------------------------
-|-1----|--3----|-1----|-5---|-6---|---7--|--5---|----------------------------
-|-----4|--3----|--2---|--6--|--7--|--6---|--5---|----------------------------
-|--2---|-2-----|---3--|-5---|-6---|-5----|-4----|----------------------------
-|---3--|--3----|---3--|--7--|--8--|------|--5---|----------------------------
-|------|-------|-1----|-5---|-6---|------|------|----------------------------
                                                                              
   F#7+5  G7+5   Cmaj7
-|-2---|--3----|-0----|-------------------------------------------------------
-|--3--|---4---|-0----|-------------------------------------------------------
-|--3--|---4---|-0----|-------------------------------------------------------
-|-2---|--3----|--2---|-------------------------------------------------------
-|-----|-------|---3--|-------------------------------------------------------
-|-2---|--3----|------|-------------------------------------------------------
                                                                              
   Final Riff (in Eb)
-|------------------|-----------|---------------------------------------------
-|-8-8------8-8-----|-8------8--|---------------------------------------------
-|-8-8------8-8-----|-8------8--|---------------------------------------------
-|-----10-8-----10-8|---10-8----|---------------------------------------------
-|------------------|-----------|---------------------------------------------
-|------------------|-----------|---------------------------------------------

INTRO:
(Cmaj7) I'm gonna love you (C13) all night long (F)
but when the street lights (A7)die I'll be (A13)gone (D13) whoa  yeah   
                                                
(F#7+5)Doo dooten do doo (G7+5) Cmaj7

Eb D Db
(4 beats to the bar)
Verses
:C   / C   /F   /F   /Bb   /Bb   /Eb   /EAug D Db/:

/Cm   /G   /Gm   /G#   /Cm   /G#   /G   /Cm Bb/ Ab   /B   /B   / 
 Comments (click here to add a non-facebook comment)
Home | FAQs | Privacy | Terms | Contact
Top 100 Tab Sites