Give Kudos?
Are you sure you want to give kudos to ROCKIN RON?

Add To Songbook?
Are you sure you want to add this song to your songbook?


472 bands | 1,727 songs
Search: Register FREE! | Login
Browse Songs:
Browse Bands:
Tool Panel
Discuss This Song

1 2 3 4 5



Lotus - Lotus 1 (Tab)
Submitter: ROCKIN RON (18) on 2/26/05 4 comments
Month Views: 16 | Total Views: 2,937
Help! We need a moderator for this artist. | Report This Song?
Song Tools

Comment

Songbook

Kudos

Show Chords

Print

Lotus

By Lotus 1.  (Boy did you test my memory on this!!)

Circa 1972 Melbourne band. 1 hit wonder.

Main Riff.

E-------------------------
B-------------------------
G-------------------------
D-------------------------
A-5-5-8-5-------------4-5-
E---------8-5-8-5-8-5-----


Riff before the chorus.

E-------------------------
B-------------------------
G-------------------------
D-------------------------
A--8-------8--------------
E----8-4-8---8-4----------


Intro is on a sustained D/G/A (Organ on the record)

Main riff plays over the verses.

Listen to me babe, throw your little head back

I gotta lot to tell you, to get you on the track,

Hey, I gotta little word of warning

In the morning I'LL be go------ne


Chorus riff X 2
C           G#           C             G#
I cant see, you and me, I'll be yours, like we were,
C             G#                             C          E//////////
If you come, you'd better come back babe, to where you belong,
C
come on back babe!

Main riff X 2

Solo


E-----------------------------
B-------------------------10-- (Ring)
G-------------------10-12-----
D-------------10-12-----------
A-------10-12-----------------
E-10-13-----------------------


E-----------------------------
B-------------------------10-12 (Ring)
G-------------------10-12-----
D-------------10-12-----------
A-------10-12-----------------
E-10-13-----------------------


Main riff 

Gotta keep a movin, I see the sun going down,

I cant wait around babe, I get my head stuck on the ground,

Hey, you better wake up early this morning,

Heres my warning, I'll be gon-----e,

Chorus Riff X 2.


C           G#           C             G#
I cant see, you and me, I'll be yours, like we were,
C             G#                             C          E//////////
If you come, you'd better come back babe, to where you belong,
C
come on back babe!

End on main riff X 2.


You would have to know the song to play this request.  I have the record.

Regards Rockin Ron

 Comments (click here to add a non-facebook comment)
Thanks heaps Rockin Ron......there wouldn't be too many people around that
would remember this one.
But like so much Oz Rock it is a little gem.
-dypsyswyk | 2/27/2005
I've never heard it..:-(
anyone got a Mp3?
Wayne
-WayneXG95 | 2/27/2005
Hey Ron,
Nice one. I heard this again the other day on a regional radio station. I'd forgotten what a cool song it is. Nice work on the tab - I want our band to play it! You may be right but I thought Lotus were from Sydney.
Cheers,
Tone
-Tone Ranger | 9/26/2005
this comment may be 10 years late but - i still have the single from way back then - the band is LOTUS - the song is called Lotus 1 - always loved the song - thanks for the tab -
-3catt | 7/10/2016
Home | FAQs | Privacy | Terms | Contact
Top 100 Tab Sites