Give Kudos?
Are you sure you want to give kudos to waynusofuranus?

Add To Songbook?
Are you sure you want to add this song to your songbook?


468 bands | 1,718 songs
Search: Register FREE! | Login
Browse Songs:
Browse Bands:
Tool Panel
Discuss This Song

1 2 3 4 5





Lynne Hamilton - On The Inside (theme From Prisoner) (Chord)
Submitter: waynusofuranus (49) on 5/17/07
Month Views: 203 | Total Views: 25,926
Help! We need a moderator for this artist. | Report This Song?
Song Tools

Comment

Songbook

Kudos

Show Chords

Print

ON THE INSIDE (Theme from Prisoner)
Written by Allan Caswell

2 beats per chord
` = 2 beats
Recording is 50 cents sharp  A=453Hz
A-chord is played as Aadd2

INTRO:
Amaj7*  D/A  E/A  D/A  Amaj7*  `
                            He used to bring me

VERSE:
Bm7  `  E7  `               Amaj7  `  F#m7  `
Roses     I wish he could a-gain        but that was on the
Bm7    `  E7sus4  E7                    A   D/A  A    `
Outside       but things were different then       we built our world to-

VERSE-SHORT:
Bm7   `  E7       `                 Amaj7  `  F#m7  `
gether     with a love so clear and strong      but that was on the
Bm7    `  E7sus4  E7             A            `
Outside           where did I go wrong on the inside the

CHORUS:
Dmaj7     `     E7        `          C#m7  `  F#7        `
Sun still shines  and the rain falls down_______ but the sun and rain are
Bm7          `  E7     `               A    D/A  A              `
Prisoners too     when morning comes a-round       last night I dreamed we were to-

VERSE-SHORT:
Bm7   `  E7        `                 Amaj7  `  F#m7     `
gether     sharing all the love we'd known       till I had to face the
Bm7      `  E7sus4  E7          A           `
Nightmare        of waking up a-lone on the inside the

CHORUS-SHORT:
Dmaj7     `     E7        `          C#m7  `  F#7        `
Sun still shines  and the rain falls down_______ but the sun and rain are
Bm7          `  E7     `               A            `
Prisoners too     when morning comes a-round on the inside the

CHORUS-ALTERNATE:
Dmaj7     `  E7           `              C#m7  `  F#7        `
Roses grow     they don't mind the stony ground_____ but the roses here are
Bm7          `  E7     `               A    D/A  A    `
Prisoners too     when morning comes a-round       he used to give me

VERSE:
Bm7  `  E7  `               Amaj7  `  F#m7  `
Roses     I wish he could a-gain        but that was on the
Bm7    `  E7sus4  E7                    A   D/A  Aadd2
Outside       but things were different then__

================================================================================

CHORDS:
   Amaj7*  D/A  E/A  Bm7  E7  Amaj7  F#m7  E7sus4  Aadd2  Dmaj7  C#m7  F#7
E|---0------5----7----2---0-----4-----2------0-------0------2-----4-----0--|
B|---2------3----5----3---3-----5-----2------3-------2------2-----5-----2--|
G|---1------2----4----2---1-----6-----2------2-------4------2-----4-----3--|
D|---2------4----6----4---2-----6-----2------2-------2------0-----6-----4--|
A|---0------0----0----2---2-----0-----4------2-------0------------4-----4--|
E|------------------------0-----------2------0--------------------------2--|

INTRO:
   Amaj7           D/A               E/A             D/A               Amaj7
   1   +   2   + a 3 e +   4   +     1   +   2   +   3   +   4   +     1
E|---------0---------------5-------|---------7---------------5-------|-0-----|
B|-----2-------2-------3-------3---|-----5-------5-------3-------3---|-2-----|
G|-----1---------1-----2-----------|---------------------2-----------|-1-----|
D|-----2---2-------2h4-----4-------|-----6---6-------4-------4-------|-2-----|
A|-0---------------0---------------|-0---------------0---------------|-0-----|
E|---------------------------------|---------------------------------|-------|

Fingerpicking varies throughout.
Mastertape was evidently sped up resulting in the song
being pitched midway between the keys of A and B-flat.


Waynus Of Uranus
May 2007
 
 Comments (click here to add a non-facebook comment)
Home | FAQs | Privacy | Terms | Contact
Top 100 Tab Sites