Give Kudos?
Are you sure you want to give kudos to lrmorris?

Add To Songbook?
Are you sure you want to add this song to your songbook?


492 bands | 1,865 songs
Search: Register FREE! | Login
Browse Songs:
Browse Bands:
Tool Panel
Discuss This Song

1 2 3 4 5



Maria Muldaur - Midnight At The Oasis (Chord)
Submitter: lrmorris (1) on 11/11/11 1 comment
Month Views: 24 | Total Views: 6,438
Help! We need a moderator for this artist. | Report This Song?
Song Tools

Comment

Songbook

Kudos

Show Chords

Print

Maria Muldaur - Midnight at the Oasis
Album: waitress in a donut shop
Transcribed by: John Cupitt (submitted by L Morrison)

I found guitar TAB on the net for this song at www.mysterylights.com/tab/mato
but it did not sound quite right. So I asked John Cupitt (Melbourne guitar teacher) to have a listen and he kindly provided his chord charts.

background: the song was written by David Nichtern www.nudgie.com
and originally recorded by Maria Muldaur. The guitarist on the Maria Muldaur version is Amos Garrett, a Canadian jazz guitarist.

Chords to verses
  Ebmaj7   Abmaj7  Db9     Db7    D7     Gbmaj7
-|-6-----|-----8--|-4-----|-4----|-5----|-----6--|----------------------------
-|---8---|-----8--|-4-----|---6--|---7--|-----6--|----------------------------
-|--7----|-----8--|-4-----|-4----|-5----|-----6--|----------------------------
-|---8---|---6----|-4-6---|---6--|---7--|---4----|----------------------------
-|-6-----|-x------|-4-----|-4----|-5----|-x------|----------------------------
-|-6-----|-x------|-4-----|-4----|-5----|-x------|----------------------------
                                                                              
  B9      Fm7       Bb9sus
-|x-----|---4-----|-----6--|-|------------------------------------------------
-|---7--|-----6---|---4----|-|------------------------------------------------
-|--6---|----5----|----5---|-|------------------------------------------------
-|---7--|-----6---|-----6--|-|------------------------------------------------
-|--6---|-x-------|-x------|-|------------------------------------------------
-|x-----|-x-------|-----6--|-|------------------------------------------------
                                                                              
Intro Chords
  F#9      B9      C#9      Ab11     Bb11
-|-x------|-x-----|-x------|-x------|-x-------|-------------------------------
-|----9---|----7--|---4----|---2----|---4-----|-------------------------------
-|----9---|---6---|---4----|----3---|----5----|-------------------------------
-|---8----|----7--|---4-6--|-----4--|-----6---|-------------------------------
-|----9---|---6---|---4----|-x------|-x-------|-------------------------------
-|-x------|-x-----|-x------|-----4--|-----6---|-------------------------------
                                                                              

Intro goes like this:
chords: F#9  B9  C#9  / Ab11   Bb11  /
timing: 1  2  & 3 & 4   1  2   &  3 4

verses:
chords: Ebmaj7... / Abmaj7.   Db9../ Ebmaj7... / Abmaj7. Db7. D7 Ebmaj7
timing: 1     234   1 2       & 34   1     234   1     2 3 &  4  &

chords: Ebmaj7... / Abmaj7.  Db9..  / Gbmaj7.  B9..  /
timing: 1     234   1     2  &  34    1     2  & 34 
 Comments (click here to add a non-facebook comment)
Good fun , ta heaps---and sorry to have to demonstrate my ignorance---but is there a chorus? Lyrics would be nice too. Encouragement not criticism--thanks again to John Cupit
-rarr | 11/24/2011
Home | FAQs | Privacy | Terms | Contact
Top 100 Tab Sites