Give Kudos?
Are you sure you want to give kudos to waynusofuranus?

Add To Songbook?
Are you sure you want to add this song to your songbook?


466 bands | 1,715 songs
Search: Register FREE! | Login
Browse Songs:
Browse Bands:
Tool Panel
Discuss This Song

1 2 3 4 5





Matt Finish - Short Note (update Nov'08) (Tab)
Submitter: waynusofuranus (78) on 7/23/07
Month Views: 529 | Total Views: 25,051
Help! We need a moderator for this artist. | Report This Song?
Song Tools

Comment

Songbook

Kudos

Show Chords

Print

SHORT NOTE
Written by Matt Moffitt

4 beats per chord              Dmaj9 and Amaj9 are ensemble harmony
` = 2 beats                    Refer to TAB for guitar voicings
_ = hold Beat-1
. = staccato Beat-1 then tacet

INTRO: (four times)
Dmaj9  Amaj9

VERSE:
Dmaj9              Amaj9  Dmaj9                       Amaj9
  Just a short note         you'll find the key inside
Dmaj9                        Amaj9             Dmaj9  Amaj9
  There's no one home tonight  but come in any-way
Dmaj9     Amaj9  Dmaj9                Amaj9
  Shallow sea      calm but not asleep  you're gonna
Dmaj9               Amaj9                 Dmaj9  Amaj9
  Wade into the deep__ tomorrow's years a-way

BRIDGE:
Dmaj9       Amaj9  Dmaj9                        Amaj9
  And now I know     why darkness makes me smile  the
Dmaj9                    Amaj9
Night will have its child  and the wind will
Dmaj9    Amaj9           Dmaj9         Amaj9
Wind away  the wind will wind away yeah__ until you're

CHORUS-SHORT:
Fmaj7                   Gadd9         Asus2  `A5  `Asus2*
Telling your friends we died laughing still          but the
Fmaj7           G6  Gadd9/A_
Vessel that you fill  will be your own
Dmaj9  Amaj9  Dmaj9               Amaj9
                Wade into the deep
Dmaj9                 Amaj9           Dmaj9       Amaj9_
  How much can you see__ before we're all the same

VERSE:
Dmaj9                Amaj9  Dmaj9                Amaj9
  Those words I wrote         I see my errors now
Dmaj9                          Amaj9                 Dmaj9  Amaj9
  There's too much when and how  but you blow it any-way
Dmaj9         Amaj9  Dmaj9                Amaj9
  The shallow sea      calm but not asleep  you're gonna
Dmaj9               Amaj9               Dmaj9               Amaj9
  Wade into the deep__ tomorrow's years away everyday every-day everyday

BRIDGE: (breakdown)
Dmaj9_          Amaj9  Dmaj9                    Amaj9
  And now I know         darkness makes me smile  the
Dmaj9                    Amaj9
Night will have its child  and we'll all just
Dmaj9    Amaj9           Dmaj9         Amaj9
Blow away  just watch us blow away yeah__ until you're

CHORUS: (tutti)
Fmaj7                   Gadd9         Asus2  `A5  `Asus2*
Telling your friends we died laughing still          but the
Fmaj7           G6  Gadd9/A_  D/A.
Vessel that you fill            will be your
Dmaj9  Amaj9  Dmaj9               Amaj9
Own______       wade into the deep
Dmaj9                 Amaj9          Dmaj9          Amaj9
  How much can you see__ before we're__ all the same__ show me

OUTRO: (four times)
Dmaj9  Amaj9

================================================================================

CHORDS:
   Dsus2  A/D  E/A  Fmaj7  Gadd9  Asus2  A5  G6  Gadd9/A  D/A
E|---0-----0----0-----0------5------0--------0-----5-------5--|
B|---3-----2----0-----1------3------0--------3-----3-------7--|
G|---2-----2----1-----2------4------2----2---4-----4-------7--|
D|---0-----0----2-----3------5------2----2---5-----5-------7--|
A|--------------0-------------------0----0---------0----------|
E|-------------------(1)----(3)-------------(3)---------------|

Dmaj9 is played as Dsus2 and A/D for two beats each
Amaj9 voicing is E/A
Ensemble adds thirds

Asus2*
Lead and Bass play G-note on Beat-4

Arpeggios are played on a 12-string guitar which duplicates some notes
in different octaves. The picking pattern is simple and consistent but
the tuning creates some distinctive melodies of close intervals ===
which are quite cumbersome to replicate on a 6-string.

VERSE:
 12-string                               6-string
   Dmaj9             Amaj9                 Dmaj9             Amaj9
   1 + 2 + 3 + 4 +   1 + 2 + 3 + 4 +       1 + 2 + 3 + 4 +   1 + 2 + 3 + 4 +
E|-------0---------|-------0---------|  E|-------0---------|---0---0-----0---|
B|-----3---2-----2-|---------0-----0-|  B|-3---3---2---3=2-|---------0-----0-|
G|---2-------2-----|-----1-----1-----|  G|---2-------2-----|-2===1-----1-----|
D|-0-----------0---|---2---------2---|  D|-0-----------0---|---2---------2---|
A|-----------------|-0---------------|  A|-----------------|-0---------------|
E|-----------------|-----------------|  E|-----------------|-----------------|
   Dsus2   A/D       E/A

CHORUS:
   Fmaj7             Gadd9             Asus2             A5      Asus2
   1 + 2 + 3 + 4 +   1 + 2 + 3 + 4 +   1 + 2 + 3 + 4 +   1 + 2 + 3   4
E|-------0---------|-------5---------|---------0-------|-----------------|
B|-----1---1-------|-----3---3-------|-------0---0-----|---------0---0---|
G|---2-------2---2-|---4-------4---4-|-----2-------2---|-2-2-2-2-2---2---|
D|-3-----------3---|-5-----------5---|---2-----------2-|-2-2-2-2-2---2---|
A|-----------------|-----------------|-0---------------|-0-0-0-0-0-------|
E|-----------------|-----------------|-----------------|-------------3*--|

   Fmaj7             G6                Gadd9/A           D/A
   1 + 2 + 3 + 4 +   1 + 2 + 3 + 4     1   2   3   4     1
E|-------0---------|-------0---------|-5---------------|-5---------------|
B|-----1---1-------|-----3---3-------|-4---------------|-7---------------|
G|---2-------2---2-|---4-------4-----|-3---------------|-7---------------|
D|-3-----------3---|-5-----------5---|-5---------------|-7---------------|
A|-----------------|-----------------|-0---------------|-----------------|
E|-----------------|-----------------|-----------------|-----------------|


Waynus Of Uranus
July 2007
Update November 2008

 Comments (click here to add a non-facebook comment)
Home | FAQs | Privacy | Terms | Contact
Top 100 Tab Sites