Give Kudos?
Are you sure you want to give kudos to waynusofuranus?

Add To Songbook?
Are you sure you want to add this song to your songbook?


466 bands | 1,714 songs
Search: Register FREE! | Login
Browse Songs:
Browse Bands:
Tool Panel
Discuss This Song

1 2 3 4 5





Missy Higgins - Angela (Chord)
Submitter: waynusofuranus (56) on 5/6/07
Month Views: 13 | Total Views: 9,461
Moderator: bonzaboy | Report This Song?
Song Tools

Comment

Songbook

Kudos

Show Chords

Print

ANGELA
Written by Missy Higgins

3 beats per chord (swing eighths)
` = 3 beats
(capo at fifth fret for recorded key of C)

INTRO:
G  `  

G  C  Am  D

G  Em  D  G  `

VERSE:
G         C         Am     D
Clear the way she's coming through with her
G       C/G    Am    D
Eye-sha-dow of satin blue and her
G      C/G       Am      D
Finger-nails all painted new she's a
G/B    Em        D      G
Danger you're ad-dicted to

CHORUS-SHORT:
Em   C  D    G
Ange-la Ange-la you're a
C      Em      D      G
Danger he's ad-dicted to

RE-INTRO:
G  C  Am  D

G  Em  D  G  `
               So

VERSE:
G      C        Am     D
Move a-side she has ar-rived with her
G    C/G      Am     D
Baby neck and sleepy eyes she has
G          C        Am   D
Heels that walk all over you she's a
G/B    Em        D      G
Danger you're ad-dicted to

CHORUS:
Em   C  D    G
Ange-la Ange-la you're a
C      Em      D      G
Danger he's ad-dicted to oh
Em   C  D    G
Ange-la Ange-la you're a
C      Em      D      G
Danger he's ad-dicted to and I

BRIDGE:
C         Dadd4/9   Em  `
Try to be more like you    speak
C          D           G/B     Em
Louder and prouder and hide my love but it
C         `   Dadd4/9  `
Spills out  oh_________ah

SOLO: (verse)
G  C  Am  D  (three times)

G/B  Em  D  G

CHORUS:
Em   C  D    G
Ange-la Ange-la you're a
C      Em      D      G
Danger he's ad-dicted to oh
Em   C  D    G
Ange-la Ange-la you're a
C      Em      D      G
Danger he's ad-dicted to you're a

TAG:
C      Em      D      G
Danger he's ad-dicted to so I'll
Em        C    D         G
Try to be more more like you
               (ritard)

================================================================================

CHORDS:
   G   C   Am  D   Em  C/G  G/B  Dadd4/9  
E|-3---0---0---2---0----0----3------0---|
B|-0---1---1---3---0----1----0------3---|
G|-0---0---2---2---0----0----0------0---|
D|-0---2---2---0---2----2----0------4---|
A|-2---3---0---0---2----3----2------5---|
E|-3---------------0----3---------------|

Second guitar and mandolin figures alter the overall harmony.

INTRO: (swing eighths)
   G             G             G             C
   1   2   3     1   2   3     1   2   3     1   2 + 3
E|-------------|-------------|-------------|-------------|
B|-------------|-------------|-------------|-------------|
G|-------------|-------------|-------------|-0=====0====-|
D|-------------|-------------|-0======-0---|-2=====--0==-|
A|-------------|-------------|h2---0---2---|-3=====--2==-|
E|-------------|-------------|-------------|-------------|

   Am11          Dadd4         G             Em
   1   2 + 3 +   1   2   3     1   2   3 +   1   2   3
E|-------------|-------------|-------------|-------------|
B|-------------|-------------|-------------|-------------|
G|-------0=====|============-|-----0======-|-------------|
D|-2-----0-----|---------0---|-0---0-------|-------------|
A|-0-------3-2-|-0======-0---|h2---2---0-2=|============-|
E|-------------|-----3-------|-----3---2-3=|============-|

   D/F#          G             G
   1   2 + 3     1   2   3     1   2   3
E|-------------|-------------|-------------|
B|-------------|-------------|-----0======-|
G|-------------|-------------|-----0======-|
D|-------------|-----0======-|-----0======-|
A|-0====---0---|-------------|-------------|
E|-2====-0-2---|-3==========-|-3==========-|

RE-INTRO: (swing eighths)
   G             C             Am11          Dadd4
   1   2 + 3     1   2   3     1   2 + 3 +   1   2   3
E|-------------|-------------|-------------|-------------|
B|-------------|-------------|-------------|-------------|
G|-0-----0-----|-------------|-------0=====|=============|
D|-0---0---0---|-------------|-----0-0-----|---------0---|
A|h2==========-|-3-----------|-0======-3-2-|-0======-0---|
E|-------------|-------------|-------------|-----3-------|

   G             Em            Dadd4         Gadd2         G
   1   2   3 +   1   2   3 +   1   2   3     1 + 2   3 +   1   2   3
E|-------------|-------------|-------------|-------------|-------------|
B|-------------|-------------|-------------|---------3===|====---------|
G|-------------|-------------|-0==========-|-----2-----0=|====-0-------|
D|-------------|-------------|-4---2---4---|-4h5========-|-5-----------|
A|h2======-0-2=|====-2---2/3-|-5==========-|-5==========-|-5-----------|
E|-----3---2-3=|=========----|-------------|-------------|-------------|

=== = sustained note
  h = hammer-on grace note
  / = slide


Waynus Of Uranus
May 2007
 
 Comments (click here to add a non-facebook comment)
Home | FAQs | Privacy | Terms | Contact
Top 100 Tab Sites