Give Kudos?
Are you sure you want to give kudos to waynusofuranus?

Add To Songbook?
Are you sure you want to add this song to your songbook?


466 bands | 1,714 songs
Search: Register FREE! | Login
Browse Songs:
Browse Bands:
Tool Panel
Discuss This Song

1 2 3 4 5





Missy Higgins - Going North (Chord)
Submitter: waynusofuranus (71) on 5/3/07
Month Views: 35 | Total Views: 8,458
Moderator: bonzaboy | Report This Song?
Song Tools

Comment

Songbook

Kudos

Show Chords

Print

GOING NORTH
Written by Missy Higgins

3 beats per chord  (swing eighths)
' = passing chord on 2+
_ = hold Beat-1
(capo at first fret)

INTRO: (fade in)
Em  Bm  C  G

C  G  D  Dsus4

VERSE:
Em      Bm        C          G
I wanna dance the tango with chance
C       G           D   Dsus4
I wanna ride on the wire  'cos
Em           Bm        C            G
Nothing gets done with dust in your gun and
C      G          D   D
Nobody respects a liar  so good-

CHORUS-1:
C         G         D         Em      'D
bye for a while I'm off to ex-plore every
C            C     D   Dsus4  D_     NC
Boundary and every door         yeah I'm going

LINK:
G    C  Dsus4  D
North
G  C  Dsus4  D

VERSE:
Em      Bm         C              G
I wanna know where children would go if
C          G             D   Dsus4
They never learned to be cool  'cos
Em          Bm           C           G
Nothing's a-chieved when pushed up a sleeve till
C      G               D   Dsus4
Nobody thinks you're a fool  so good-

CHORUS-2:
C         G         D            Em   'D
bye for a while I'm out to learn more about
C            C      D   Dsus4  D_     NC
Who I really was be-fore         yeah I'm going

LINK:
G    C  Dsus4  D
North
G  C  Dsus4  D

G  C  Dsus4  D
               Up where the

BRIDGE:
G      C         Dsus4  D
Hunted hide with ease   under the
Em      C        Dsus4  D
Arms of eye-less trees  up where the
G       C         Dsus4  D
Answers fall like leaves oh and your
Am7     `     Dsus4_    NC
Love is all I need yeah I'm going

TAG:
G    C  Dsus4  D
North            I'm going
G    C  Dsus4  D
North     yeah I'm going
G    C  Dsus4  D
North          ay__
G  C  G
________

================================================================================

CHORDS:
   Em  Bm  C   G   D  Dsus4
E|-0---2---0---3---2----3--|
B|-0---3---1---3---3----3--|
G|-0---4---0---0---2----0--|
D|-2---4---2---0---0----0--|
A|-2---2---3---2---0----0--|
E|-0-----------3-----------|

LINK:
Link sections have a folky sound because of the
seconds and fourths clashing with the thirds.
Following chords mimic the ensemble sound:
   G          Cadd2      Dsus4      Dadd4
E|-3--------|-0--------|-3--------|-2--------|
B|-0--------|-1--------|-3--------|-3--------|
G|-0--------|-0--------|-0--------|-0--------|
D|-0--------|-0--------|-0--------|-0--------|
A|----0--2--|-3--------|-0--------|-0--------|
E|-3--------|----------|----------|----------|
 |          |          |          |          |
E|-3--5--7--|-8--------|-5--------|----------|   Plucked lead plays
B|-3--------|----------|-7*-------|----------|   D-triad with third *
G|----------|----------|-7--------|----------|
D|----------|----------|----------|----------|

CHORUS-1:
   Em    D      C       C          D       Dsus4            D
   1  2  + 3    1 2 3   1  2  3    1 2 3   1  + 2  + 3  +   1
E|-0----------|-------|----------|-------|----------------|-------|
B|-0-----3----|-1-----|----1-----|-------|----3------5----|/7-----|
G|-0-----2----|-0-----|h2--0-----|-2-----|----------------|-------|
D|-2-----0----|-2-----|-------2--|-0-----|---------4/5--5-|/7-----|
A|-2----------|-3-----|----------|-------|----------------|-------|
E|-0----------|-------|----------|-------|----------------|-------|

CHORUS-2:
   Em    D      C       C          D       Dsus4            D
   1  2  + 3    1 2 3   1  2  3    1 2 3   1  + 2  + 3  +   1
E|-0----------|-------|----------|-------|-2-h3----3------|-2-----|
B|-0-----3----|-1-----|----1-----|-3-----|-3-------3------|-3-----|
G|-0-----2----|-0-----|/4--2--0--|-2-----|-2-------2------|-2-----|
D|-2-----0----|-2-----|----------|-0-----|-0--------------|-0-----|
A|-2----------|-3-----|----------|-------|----------------|-------|
E|-0----------|-------|----------|-------|----------------|-------|

h = hammer-on
/ = slide


Waynus Of Uranus
May 2007
 
 Comments (click here to add a non-facebook comment)
Home | FAQs | Privacy | Terms | Contact
Top 100 Tab Sites