Give Kudos?
Are you sure you want to give kudos to Deleted Member?

Add To Songbook?
Are you sure you want to add this song to your songbook?


466 bands | 1,714 songs
Search: Register FREE! | Login
Browse Songs:
Browse Bands:
Tool Panel
Discuss This Song

1 2 3 4 5





Missy Higgins - Greed For Your Love (Tab)
Submitter: Deleted Member (0) on 11/21/04
Month Views: 9 | Total Views: 2,901
Moderator: bonzaboy | Report This Song?
Song Tools

Comment

Songbook

Kudos

Show Chords

Print

Artist: Missy Higgins
Song: Greed For Your Love
Album: Missy Higgins EP

Verses:
    Em
E-|---------0----3-2-0h2h3-----------0----3--3/5--2~--
B-|-------0--0----------------------0--0--------------
G-|-----0-----0------------------0------0-------------
D-|-0h2---2---2----------------0h2--2--2--------------
A-|---------------------------------------------------
E-|---------------------------------------------------

Pre Chorus 1:
    Am
E-|------------------------------------------------|-
B-|-------1-------3------1-------0h1---------1/3-1-|-
G-|---2------2-------2-----2-----2----2------------|-
D-|-2---2------2-------2-----2---2------2----------|-
A-|-0----------------------------------------------|-
E-|------------------------------------------------|-

Pre Chorus 2:
(can be plucked like this or simply strum)
 
     Am			   C
E-|----0--------0----------0----------0----
B-|---1-1------1-1--------1-1--------1-1---
G-|--2---2----2---2------0---0------0---0--
D-|-2--------2-----------------------------
A-|--------------------3----------3--------
E-|----------------------------------------
 

Chorus:
    Em   D   Am         (Am cascades like this)
E-|-0----2---0---  -0---0---0---0-
B-|-0----3---1---  -1---3---1---0-
G-|-0----2---2---  -2---2---2---2-
D-|-2----0---2---  -2---2---2---2-
A-|-2----0---0---  -0---0---0---0-
E-|-0----x---0---  -0---0---0---0-

Bridge:
    C    D   Em
E-|-0----2---0---
B-|-1----3---0---
G-|-0----2---0---
D-|-2----0---2---
A-|-3----0---2---
E-|-3----x---0---

Comments email: jessy84 at gmail.com
 Comments (click here to add a non-facebook comment)
Home | FAQs | Privacy | Terms | Contact
Top 100 Tab Sites