Give Kudos?
Are you sure you want to give kudos to waynusofuranus?

Add To Songbook?
Are you sure you want to add this song to your songbook?


466 bands | 1,714 songs
Search: Register FREE! | Login
Browse Songs:
Browse Bands:
Tool Panel
Discuss This Song

1 2 3 4 5





Missy Higgins - Leave A Note (Tab)
Submitter: waynusofuranus (71) on 5/7/07
Month Views: 22 | Total Views: 3,909
Moderator: bonzaboy | Report This Song?
Song Tools

Comment

Songbook

Kudos

Show Chords

Print

LEAVE A NOTE
Written by Missy Higgins
Arrangement based on 'demo' version from Steer EP

4 beats per chord (rhumba feel)

     1  2  +  3   4
G  = G     Gsus4  G    (C-chord simile)
G* = G     Gsus4

INTRO:
G*  G  G*  G

C*  C  C*  C

VERSE:
G*        G              C*      C
Time blows  softly all a-round us  but
G*      G         C*  C
We don't  feel it now
G*            G                   C*         C
You made much more than a hole in the sky boy
G*          G             C*    C
You made us hollow on the inside  so

CHORUS:
D                     Am
Next time when you're leaving could you
D                Am
At least leave a note
D                     Am
Next time when you're leaving could you
Dsus4      D
Tell us be-fore you
G*  C  G*  C
Go

VERSE:
G*          G            C*         C
Black wheels  roll out a young heart  as the
G*       G           C*  C
Cold wind  cools our eyes
G*            G                     C*      C
You left much more than thick salty lips boy
G*          G        C*   C
You left us wondering  why  so

CHORUS:
D                     Am
Next time when you're leaving could you
D                Am
At least leave a note
D                     Am
Next time when you're leaving could you
Dsus4      D
Tell us be-fore you
G*  C     G*  C
Go    you go____ you

REFRAIN:
G             C               G             C
Go you go you go you go__ you go you go you go__ you
G             C               G             C
Go you go you go you go__ you go you go you go__oh-__
G  C         G  C
Oh   go-oh-__oh   so

TAG:
D                     Am
Next time when you're leaving could you
Dsus4      D
Tell us be-fore you
G*  C  G  G
Go

================================================================================

CHORDS:
   G  Gsus4  C  Csus4  D   Am  Dsus4
E|---------------------2---------3--|
B|---------------------3---1-----3--|
G|-0----0----0----0----2---2-----2--|
D|-0----0----2----3----0---2-----0--|
A|-2----3----3----3--------0--------|
E|-3----3---------------------------|

TAB shows all patterns used but without repeats.
Hold notes after the hammers and let all notes ring.
First two beats of the G and C patterns is always the same.
Feel the rhumba accents on 1 2+ and 4.

INTRO:
   G           Gsus4                 G           Gsus4       G
   1 e + a 2   + a 3   +   4   +     1 e + a 2   + a 3   +   4   +
E|---------------------------------|---------------------------------|
B|---------------------------------|---------------------------------|
G|---------0-----------------------|---------0-----------------------|
D|-----------------------------0---|---------------------0-----------|
A|-----0h2-----2h3-----------------|-----0h2-----2h3---------2-------|
E|-0h3-----------------------------|-0h3-------------------------3---|

   C           Csus4                 C           Csus4       C
   1 e + a 2   + a 3   +   4   +     1 e + a 2   + a 3   +   4   +
E|---------------------------------|---------------------------------|
B|---------------------------------|---------------------------------|
G|---------0-------------------0---|---------0-----------0-------0---|
D|-----0h2-----2h3-----------------|-----0h2-----2h3---------2-------|
A|-0h3-----------------------------|-0h3-----------------------------|
E|---------------------------------|---------------------------------|

VERSE:
   G           Gsus4                 G           Gsus4       G
   1 e + a 2   + a 3   +   4   +     1 e + a 2   + a 3   +   4   +
E|---------------------------------|---------------------------------|
B|---------------------------------|---------------------------------|
G|---------0-----------------------|---------0-----------------------|
D|-----------------------------0---|---------------------------------|
A|-----0h2-----2h3-----------------|-----0h2-----2h3---------2-------|
E|-0h3-----------------------------|-0h3-----------------------------|

   C           Csus4                 C           Csus4       C
   1 e + a 2   + a 3   +   4   +     1 e + a 2   + a 3   +   4   +
E|---------------------------------|---------------------------------|
B|---------------------------------|---------------------------------|
G|---------0-------------------0---|---------0-----------0-------0---|
D|-----0h2-----2h3-----------------|-----0h2-----2h3---------2-------|
A|-0h3-----------------------------|-0h3-----------------------------|
E|---------------------------------|---------------------------------|

CHORUS:
   D                                 Am
   1   +   2   +   3   +   4   +     1   + a 2 e +   3   +   4   +
E|-------------2---------------2---|---------------------------------|
B|---------3-----------3-----------|-------------1---------------1---|
G|-----2-------------------2-------|---------0h2---------2-----------|
D|-0-------------------------------|-----0h2-----------------2-------|
A|---------------------------------|-0-------------------------------|
E|---------------------------------|---------------------------------|

   Dsus4                             D
   1   +   2   +   3   +   4   +     1   +   2   +   3   +   4   +
E|-------------3-------------------|---------------------------------|
B|---------3-----------3-----------|-3-------------------------------|
G|-----2-------------------2-------|---------------------------------|
D|-0---------------------------0---|---------------------------------|
A|---------------------------------|---------------------------------|
E|---------------------------------|---------------------------------|

   G           Gsus4                 C           Csus4       C
   1 e + a 2   + a 3   +   4   +     1 e + a 2   + a 3   +   4   +
E|---------------------------------|---------------------------------|
B|---------------------------------|---------------------------------|
G|---------0-----------------------|---------0-----------0-------0---|
D|-----------------------------0---|-----0h2-----2h3---------2-------|
A|-----0h2-----2h3-----------------|-0h3-----------------------------|
E|-0h3-----------------------------|---------------------------------|

REFRAIN:
   G           Gsus4       G         C           Csus4       C
   1 e + a 2   + a 3   +   4   +     1 e + a 2   + a 3   +   4   +
E|---------------------------------|---------------------------------|
B|---------------------------------|---------------------------------|
G|---------0-----------------------|---------0-----------0-------0---|
D|---------------------0-------0---|-----0h2-----2h3---------2-------|
A|-----0h2-----2h3---------2-------|-0h3-----------------------------|
E|-0h3-----------------------------|---------------------------------|

ENDING:
   G           Gsus4       G         G
   1 e + a 2   + a 3   +   4   +     1   +   2   +   3   +   4   +
E|---------------------------------|---------------------------------|
B|---------------------------------|---------------------------------|
G|---------0-----------------------|---------------------------------|
D|---------------------0-------0---|---------------------------------|
A|-----0h2-----2h3---------2-------|---------------------------------|
E|-0h3-----------------------------|-3-------------------------------|


Waynus Of Uranus
May 2007
 Comments (click here to add a non-facebook comment)
Home | FAQs | Privacy | Terms | Contact
Top 100 Tab Sites