Give Kudos?
Are you sure you want to give kudos to luke0166?

Add To Songbook?
Are you sure you want to add this song to your songbook?


466 bands | 1,714 songs
Search: Register FREE! | Login
Browse Songs:
Browse Bands:
Tool Panel
Discuss This Song

1 2 3 4 5





Missy Higgins - Scar (version2) (Tab)
Submitter: luke0166 (0) on 1/28/06
Month Views: 18 | Total Views: 4,481
Moderator: bonzaboy | Report This Song?
Song Tools

Comment

Songbook

Kudos

Show Chords

Print

Missy Higgins - Scar

intro/Piano bit:

C     G	     Am        F      C     G	 Am     F     
e|---8p7----------------------|---8p7--------------------|
B|-------8-8/10-8--3---3h5----|-------8-8/10--8--3-------|
G|--------------------5-------|----------------------5---|
D|----------------------------|--------------------------|
A|----------------------------|--------------------------|
E|----------------------------|--------------------------|

C                 G
He left a card a bar of soap
      Am                   F
And a scrubbing brush next to a note 
           C         G            Am        F
That said use these down to your bones 
    C                     G
And before i knew I had shiny skin 
         Am               F
And it felt easy being clean like him 
           C              G            Am      F
I thought this one knows better than I do 


pre-chorus:

 Dm                    F              G   
A triangle trying to squeeze thru a circle 
Dm                         F           
He tried to cut me so I'd fit


Chorus:

G                      C
Doesnt that sound familiar 
                     G         
Doesnt that hit too close to home 
                      Am
Doesnt that make you shiver 
                           F 		
The way things could have gone  
G                    C
Doesnt that feel peculiar 

                        G
That everyone wants a little more 
                    Am
And so that I do remember
                 F
To never go that far 
	     G              C
Could you leave me with a scar


Piano bit:

Verse 2

So the next one came with a bag of treats, 
she smelled like sugar and spoke like the sea
And she told me don't trust them, trust me
Then she pulled at my stitches one by one, 
Looked at my insides clicking her tongue 
And said "This will all have to come undone"

pre-chorus

A triangle trying to squeeze through a circle
She tried to blunt me so I'd fit


Chorus 2  last line *chord change:

	    G	          *Dm
Could you leave me with a scar


Instrumental:

 
 Dm        F             C        G              

e|-8-7-8----8-7-8----|-12/13-12-10-------------|
B|----------------8--|-------------12-13-12-10-|
G|-------------------|-------------------------|
D|-------------------|-------------------------|
A|-------------------|-------------------------|
E|-------------------|-------------------------|

Dm                    F  

e|---1717--1515--1212--1010--8p7---|
B|-------------------------------8-|
G|---------------------------------|
D|---------------------------------|
A|---------------------------------|
E|---------------------------------|
                                             

	     C
I think I realized just in time
	     G
Although my old self was hard to find
          Am                                 
You can bathe me in your finest wine 
           F
but I'll never give you mine


            C                    
'Cos I'm a little bit tired of fearing that I'll be the 
G
Bad fruit nobody buys
Am                                        F
Tell me, did you think we'd all dream the same?
 Comments (click here to add a non-facebook comment)
Home | FAQs | Privacy | Terms | Contact
Top 100 Tab Sites