Give Kudos?
Are you sure you want to give kudos to beccy?

Add To Songbook?
Are you sure you want to add this song to your songbook?


466 bands | 1,714 songs
Search: Register FREE! | Login
Browse Songs:
Browse Bands:
Tool Panel
Discuss This Song

1 2 3 4 5





Missy Higgins - The Cactus That Found The Beat (Tab)
Submitter: beccy (0) on 12/18/04
Month Views: 17 | Total Views: 4,821
Moderator: bonzaboy | Report This Song?
Song Tools

Comment

Songbook

Kudos

Show Chords

Print

The Cactus That Found The Beat - Missy Higgins
Piano arranged for guitar
Tabbed by Ryan Andersen - humorous_name2000 at yahoo.com.au

This is a pretty jazzy song I saw her play live with the band a while back.

I have seen a version of this but it is wrong. So here you are.

The only chords are:

C Bb Ab G

Here we go:

Intro part:

e|-----------------|
B|---5-5---3-------|
G|---5-5---3---5---| x4
D|---5-5---3---6---|
A|---3-3---1---6---|
E|-------------4---|


Then the jazzy walking riff:

e|-------------------------------|
B|-------------------------------|
G|-------5-------3-----------4---|
D|-----5---5---3---3-----6---5---|
A|---3-------1---------6-----5---|
E|-------------------4-------3---|
 Comments (click here to add a non-facebook comment)
Home | FAQs | Privacy | Terms | Contact
Top 100 Tab Sites