Give Kudos?
Are you sure you want to give kudos to ROCKIN RON?

Add To Songbook?
Are you sure you want to add this song to your songbook?


466 bands | 1,714 songs
Search: Register FREE! | Login
Browse Songs:
Browse Bands:
Tool Panel
Discuss This Song

1 2 3 4 5





Normie Rowe and the Playboys - Shakin All Over Solo (Solo)
Submitter: ROCKIN RON (33) on 8/15/04 2 comments
Month Views: 42 | Total Views: 8,915
Help! We need a moderator for this artist. | Report This Song?
Song Tools

Comment

Songbook

Kudos

Show Chords

Print

SHAKIN ALL OVER SOLO

EASY WAY TO PLAY THE 2ND PARTS IS PUT YOUR FIRST FINGER ACROSS
THE 5TH FRET ON THE DGBE STRINGS AND USE YOUR 3RD AND PINKY FOR
THE OTHER NOTES.  A LOT OF 60S SOLOS ARE USED WITH THIS POSITION


E-|-----5-5-5-----5-5-5-----5-5-5--5-5-0---------------
B-|-4-S-5-5-5-4-S-5-5-5-4-S-5-5-5--5-5-0--X-2----------
G-|----------------------------------------------------
D-|----------------------------------------------------
A-|----------------------------------------------------
E-|----------------------------------------------------

E-|---5----------------5----------------5-5-5-----5-5-5
B-|-----8-5--------------8-5--------4-S-5-5-5-4-S-5-5-5
G-|---------7-5--------------7-5-----------------------
D-|-7-----------7-5--7-----------7---------------------
A-|----------------------------------------------------
E-|----------------------------------------------------


E-|-----5-5-5-5-5-0-------7----------------------------
B-|-4-S-5-5-5-5-5-0-X-2-------10-7--------7------------
G-|---------------------------9---9----9-7-------------
D-|---------------------9-------9----------9-----------
A-|----------------------------------------------------
E-|----------------------------------------------------
                                                         EM STRUM(TREMELO)
E-|-----5-5-5-----5-5-5-----5-5-5-5-5-0------------------
B-|-4-S-5-5-5-4-S-5-5-5-4-S-5-5-5-5-5-0------------------
G-|------------------------------------------------------
D-|-----------------------------------------2-2-0-0----2-
A-|------------------------------------------------2-2---
E-|--------------------------------------0-0-------------


ENJOY ROCKIN RON.
 Comments (click here to add a non-facebook comment)
better dig out my old 45's..LOL
-WayneXG95 | 8/15/2004
Good one and very well done,,,keep up the good work Ron
-aussief | 1/4/2013
Home | FAQs | Privacy | Terms | Contact
Top 100 Tab Sites