Give Kudos?
Are you sure you want to give kudos to waynusofuranus?

Add To Songbook?
Are you sure you want to add this song to your songbook?


466 bands | 1,714 songs
Search: Register FREE! | Login
Browse Songs:
Browse Bands:
Tool Panel
Discuss This Song

1 2 3 4 5





Richard Clapton - Goodbye Tiger (Chord)
Submitter: waynusofuranus (52) on 5/15/07
Month Views: 57 | Total Views: 11,295
Help! We need a moderator for this artist. | Report This Song?
Song Tools

Comment

Songbook

Kudos

Show Chords

Print

GOODBYE TIGER
Written by Richard Clapton

4 beats per chord (anticipated changes)
` = 2 beats

INTRO:
G  G  Cmaj7  Cmaj7  (two times)

VERSE:
G         G   Am                        C                  G   G
  Geez he said  the bands don't seem to play round here no more
Am                        C
  And Saturday night just ain't the same
Am                    C               C             G   G
  Wish everything was back the way it used to be be-fore
Am                   Bm                C             `G  `G/F#
  Now I sit here and push my long hair back behind my ears
Em                   Em         C                 C
  The face I used to hide behind  is now becoming ghostly with the years

LINK:
D  C  Em  D
            Good-

CHORUS:
G   G    Am7             C          G    G
bye Tiger  chasing those dolce vita times
Am7           C                   G         G
  Somehow you seem t'have left me far behind
Am7                   Em9            Am7      Am7(11)
  But you can hear me whisper on the nightline  good
Am7  Am7        Em9  Em9        Am7  Am7
bye  Tiger good-bye  Tiger good-bye

RE-INTRO: (solo)
G  G  Cmaj7  Cmaj7

G  G  Cmaj7  Cmaj7
               I keep

VERSE-SHORT:
G        G    Am                   C            G      G
Shifting round  I wear the dust of many foreign streets
Am             C                     G  G
  Drifting and shifting with the wind__
Am                      Bm             C              `G  `G/F#
  Now this same wind is howling like a cyclone here in-side
Em          Em               C           C
  And I see I've got nothing left to hide

BRIDGE:
Am7        Em9            Am7          Am7(11)
  Nobody's gonna take the stage tonight
Am7             Em9        Am7  Am7
  So I sit here anyway and sigh   good

CHORUS:
G   G    Am7             C          G    G
bye Tiger  chasing those dolce vita times
Am7           C                   G         G
  Somehow you seem t'have left me far behind
Am7               Em9            Am7      Am7(11)
  You can hear me whisper on the nightline  good
Am7  Am7        Em9  Em9        Am7  Am7
bye  Tiger good-bye  Tiger good-bye

OUTRO: (fade with ad lib vocal)
G  G  Cmaj7  Cmaj7

================================================================================

CHORDS:
    G  Cmaj7  Am  C   Bm  G/F#  Em  D  Am7(11)  Em9
E|--3----3----0---0---2----3----0---2---0--------0--|
B|--0----0----1---1---3----0----0---3---1-(3)----3--|
G|--0----0----2---0---4----0----0---2---0--------0--|
D|--0----2----2---2---4----0----2---0---2--------4--|
A|--2----3----0---3---2---------2---0---0--------2--|
E|--3----------------------2----0----------------0--|

Eveything about this song (structure and performance) says
"loose" so don't try to duplicate the recording precisely.
TAB shows typical arpeggios with anticipated changes.
'Bright' piano stabs on the C-chord are F#-A (#11,13)

INTRO: (let ring)
   G                               Cmaj7                             G
   1 + 2 + 3 + 4 +   1 + 2 + 3 + 4 +   1 + 2 + 3 + 4 +   1 + 2 + 3 + 4 +
E|-----------------|-----------------|-----------------|-----------------|
B|-0-------0-------|---0-----0-------|-0-------0-------|---0-----0-------|
G|---0-------0-----|-----0-----0-----|---0-------0-----|-----0-----0-----|
D|-----0-------0---|-------0-----0---|-----2-------2---|-------2-----0---|
A|-----------------|---------------3-|-------3-------3-|-----------------|
E|-------3-------3-|-----------------|-----------------|---------------3-|

   G                               Cmaj7                               G
   1 + 2 + 3 + 4 +   1 + 2 + 3 + 4 +   1 + 2 + 3 + 4 +   1 + 2 + 3 + 4 +
E|-----------------|-----------------|-----------------|---3-----3-------|
B|-0-------0-------|---------0-------|-0-------0-------|-----0-----0-----|
G|---0-------0-----|-------0---0-----|---0-------0-----|-0-----0---------|
D|-----0-------0---|-----0-------0---|-----2-------2---|-----------------|
A|-----------------|---2-----------3-|-------3-------3-|------------g3---|
E|-------3-------3-|-----------------|-----------------|---------------3-|

g = grace note hammer-on from scale step below


Waynus Of Uranus
May 2007
 
 Comments (click here to add a non-facebook comment)
Home | FAQs | Privacy | Terms | Contact
Top 100 Tab Sites