Give Kudos?
Are you sure you want to give kudos to Freezex61?

Add To Songbook?
Are you sure you want to add this song to your songbook?


473 bands | 1,727 songs
Search: Register FREE! | Login
Browse Songs:
Browse Bands:
Tool Panel
Discuss This Song

1 2 3 4 5



The Radiators - No Tradgedy - With Solo (Chord)
Submitter: Freezex61 (0) on 4/30/19
Month Views: 45 | Total Views: 277
Help! We need a moderator for this artist. | Report This Song?
Song Tools

Comment

Songbook

Kudos

Show Chords

Print

No Tragedy - The Radiators       Tabbed By Freezex61



This is the picking pattern played behind the chords in the verses and the intro

   Am          C            F              C        Em      Am
e|-----------------------------1-----1-------------------------|
B|---1-----1-----1-----1-----------1---1-------1--------1------|
G|-------2---2-------2---2-------2---------------0--------0----|
D|-----2-----------2-------------------------2--------0--------|
A|-0-----------3------------3--------------3--------2--------0-|
E|-------------------------------------------------------------|



Am             C                   F       C         Em     Am
The rest of me, Got the best of me, Ohh I donít think I can wait


Am        C            F       C        Em         Am
To pacify, Not rectify, Ohh I hope the mailís not late


Am              C                      F         C        Em        Am
Nothing to gain, Donít show the strain, Silence now will seal your fate


Am         C               F           C       Em     Am
To rectify, Hard to define, Thereís no need to speculate





Dm              C             Am           G              G6  G
Itís no tragedy, ooh ohh ohh ohh, You can work it if you want to

Dm              C             Am           G                 G6  G   
Itís no tragedy, ooh ohh ohh ohh, You can stretch it out to fit you




Am               C                  F         C         Em     Am
The waterís deep, the talk is cheap, and the guage is reading low

Am             C                F         C        Em        Am
The story goes, or so itís told around much too late for the show

Am                 C               F        C       Em     Am
Thereís no way out, So if in doubt, Fire at will as you go down




Dm              C             Am           G              G6  G
Itís no tragedy, ooh ohh ohh ohh, You can work it if you want to

Dm              C             Am           G                 G6  G   
Itís no tragedy, ooh ohh ohh ohh, You can stretch it out to fit you

Dm              C             Am           G              G6  G
Itís no tragedy, ooh ohh ohh ohh, You can work it if you want to

Dm              C             Am           G                 G6  G   Bb  Bb
Itís no tragedy, ooh ohh ohh ohh, You can stretch it out to fit you



Bridge:

C       Dm        Bb     C                 Dm   Bb
Woah it aint good for ya, These things are to annoy ya

C              Dm       Bb     G    F  Bb
Raise it up a pole see if it flies

C         Dm       Bb     C                 Dm   Bb
Wondering will destroy ya, If not them the paranoia

C              Dm    Bb        G  F Bb
Plug it in to see if it lights up       Lights up



Solo: (Listen for the timing of the notes)
   Am           C         F     Em    C     
e|---------------------------------------------|
B|---------------------------------------------|
G|------------------------10--10-9-------------|
D|7---7--7-9-10----7-9-10-----------10--9------|
A|---------------------------------------------|
E|---------------------------------------------|

   Am       C             F     Em  C      Am
e|---------------------------------------------|
B|----------------------------------13-12-10---|
G|-----------------7-9--/14--14-12-------------|
D|-7---7-9-10---10-----------------------------|
A|---------------------------------------------|
E|---------------------------------------------|

   Am          C         F       Em   C     
e|---------------10-12---13---13-12------------|
B|--10-12-13--13---------------------13-12-----|
G|---------------------------------------------|
D|---------------------------------------------|
A|---------------------------------------------|
E|---------------------------------------------|

   Am         C          F        Em     C       Am   
e|------------------------------------------------------|
B|-10---10-12-13---13-12-10-----------------------------|
G|---------------------------10--10-9-------------------|
D|------------------------------------12-10-------------|
A|------------------------------------------12-10-9-7---|
E|------------------------------------------------------|





Dm              C             Am           G              G6  G
Itís no tragedy, ooh ohh ohh ohh, You can work it if you want to

Dm              C             Am           G                 G6  G   
Itís no tragedy, ooh ohh ohh ohh, You can stretch it out to fit you

Dm              C             Am           G              G6  G
Itís no tragedy, ooh ohh ohh ohh, You can work it if you want to

Dm              C             Am           G                 G6  G   
Itís no tragedy, ooh ohh ohh ohh, You can stretch it out to fit you

Dm              C             Am           G              G6  G
Itís no tragedy, ooh ohh ohh ohh, You can work it if you want to

Dm              C             Am           G                 G6  G   
Itís no tragedy, ooh ohh ohh ohh, You can stretch it out to fit you

Dm              C             Am           G              G6  G
Itís no tragedy, ooh ohh ohh ohh, You can work it if you want to

Dm              C             Am           G                 G6  G   
Itís no tragedy, ooh ohh ohh ohh, You can stretch it out to fit you




(Fades Out)

  The G6 Chord.

e|------|
B|--1---|
G|------|
D|------|
A|--2---|
E|--3---| 
 Comments (click here to add a non-facebook comment)
Home | FAQs | Privacy | Terms | Contact
Top 100 Tab Sites