Give Kudos?
Are you sure you want to give kudos to lrmorris?

Add To Songbook?
Are you sure you want to add this song to your songbook?


472 bands | 1,727 songs
Search: Register FREE! | Login
Browse Songs:
Browse Bands:
Tool Panel
Discuss This Song

1 2 3 4 5



Twilights - 9.50 (Chord)
Submitter: lrmorris (2) on 3/10/19
Month Views: 40 | Total Views: 260
Help! We need a moderator for this artist. | Report This Song?
Song Tools

Comment

Songbook

Kudos

Show Chords

Print

THE TWILIGHTS Ė 9.50
Terry Britten was the lead guitarist
INTRO (and repeating riff):
Chord A
-|-----------------|----------------------------------------------------------
-|-----------------|----------------------------------------------------------
-|-----------------|----------------------------------------------------------
-|-7-7-7-7-7-12-11-|----------------------------------------------------------
-|-0-0-0-0-0-0--0--|----------------------------------------------------------
-|-----------------|----------------------------------------------------------
Play Intro 3 times before Vocals start.....
VERSE 1
A
A definite look in was her reply
Without even looking with the bat of an eye 
Youíll get your chance later I said to myself 
The sooner the better for patience itself
CHORUS
Bm
9.50 is the time she said 
9.50 let it go to your head
Donít be late was the second reply 
If you are you better lay down and die
9.50   9.50   9.50   9.50
G
9.50......
E
9.50.......
A
9.50
VERSE 2
A
I caught the 9.30 weíll be there in time 
Got to change your mind to Central line
I said go faster as I clutched for the  rail 
Itís now  9.40 and my time seemed to sail  ...
9.50 let it go to your head....
BRIDGE
A                                             G                              A                      G
Hurry Hurry Hurry, no time to spend, no time to worry, will she be there
9.50 is the time she said 
9.50 let it go to your head
Hurry hurry hurry no time to spare 
Worry worry worry will she be there
(listen to recording for backing vocals)
A definite look and thatís why Iím here 
Iím standing here looking but she ainít come near  
Well is she late is she gonna show 
I guess Iíll never really get to know 

9.50 is the time thatís passed 
9.50 now Iíll know at last 
Here she comes a walkiní down the street 
Now my emptiness can feel the heat

 9.50   9.50   9.50   9.50

GUITAR SOLO (played twice)
Part A                                                   Part B
Chord A                                               D
|------------------------------|------------------------|---------------------
-|-----------------------12-10-|------------------------|---------------------
-|-----------------12-11-------|-11h12-11-9-11-9-7-6h7-4|---------------------
-|-7-7-7-7-7-12-11-------------|------------------------|---------------------
-|-0-0-0-0-0-0--0--------------|------------------------|---------------------
-|-----------------------------|------------------------|-
Finish song by playing Part A of solo

 
 Comments (click here to add a non-facebook comment)
Home | FAQs | Privacy | Terms | Contact
Top 100 Tab Sites