Give Kudos?
Are you sure you want to give kudos to lrmorris?

Add To Songbook?
Are you sure you want to add this song to your songbook?


492 bands | 1,865 songs
Search: Register FREE! | Login
Browse Songs:
Browse Bands:
Tool Panel
Discuss This Song

1 2 3 4 5



hank marvin - Sacha (Lead)
Submitter: lrmorris (1) on 11/11/11 1 comment
Month Views: 71 | Total Views: 10,338
Help! We need a moderator for this artist. | Report This Song?
Song Tools

Comment

Songbook

Kudos

Show Chords

Print

Hank Marvin - Sacha
Album: The Shadows - Another 20 golden greats
Transcribed by: L. Morrison

this song is in 4/4 time and key of D. you need to listen to the song for timing
because many phrases start on the 'and' of the 4 beat, ie just before the 1 beat of next bar. 

the outro took some working out because of the effects used (rotating leslie speakers, flange??), Hank is improvising over the E G A chords here, bending notes like a blues player at times.

chords:
intro: EEGA (x4)

verses: D   /F#m   /B   /E7 F#m A/

        D   /F#m   /B   /Ddim7   /A   /D   /G   /C   /F   /F   /E   /E   /

solo: EEGA (x2) 
      E GA (x4) E C#m/A B /E G A/E G A/ A C D (x4) A F#m/D E/A C D/ A C D/ E (x3)

outro: EEGA (x2) E G A (x4) E C#m/A B

symbols used: / slide up; \ slide down; b bend; h hammer; v vibrato

Verses

-------|-------|-------|-------------|--------|-------|-------|------|-----|--
-------|-10--10|-12----|-9-10-9------|--------|-10--10|-12----|-9---9|-10--|--
-11----|-------|-----11|--------11-9-|-11-----|-------|-----11|------|----9|--
-----12|-------|-------|-------------|------12|-------|-------|------|-----|--
-------|-------|-------|-------------|--------|-------|-------|------|-----|--
-------|-------|-------|-------------|--------|-------|-------|------|-----|--
                                                                              

------------|--------|------------|------|---------|--------------------------
-7--8-7---7-|-8------|-5--6-5---5-|-6----|-5-------|--------------------------
--------9---|------7-|--------7---|----5-|---7-5-7/|-9------------------------
------------|--------|------------|------|---------|--------------------------
------------|--------|------------|------|---------|--------------------------
------------|--------|------------|------|---------|--------------------------
                                                                              
solo
---------|-------------------|----|-------------------|----------------|------
-10-h-12v|-------12-14-14b16-|-12-|-------12-14-14b16-|-12-12----------|------
---------|-13-14-------------|----|-13-14-------------|-------13-------|------
---------|-------------------|----|-------------------|----------14\11-|------
---------|-------------------|----|-------------------|----------------|------
---------|-------------------|----|-------------------|----------------|------
                                                                              

---------------------|----------|---|--------|-------------------|----|-------
-12b14-12b14-10------|----------|---|-15/17v-|-------17-19-19b21-|-17-|-------
----------------11---|----------|-9-|--------|-18-19-------------|----|-------
-------------------9-|-9-9-12b14|---|--------|-------------------|----|-------
---------------------|----------|---|--------|-------------------|----|-------
---------------------|----------|---|--------|-------------------|----|-------
                                                                              

-------------------------|----------------|----------------------|------------
-------17-19-19b21-19b21-|-17-17----------|-17b19-17b19-15-------|------------
-18-19-------------------|-------18-------|----------------16----|------------
-------------------------|----------19-16-|-------------------14-|------------
-------------------------|----------------|----------------------|------------
-------------------------|----------------|----------------------|------------
                                                                              

-------------------|-----------------|----------------------------------------
-------------------|-----------------|----------------------------------------
-14-14-17b19-17b19-|-14-14-12-14-12b-|-14-------------------------------------
-------------------|-----------------|----------------------------------------
-------------------|-----------------|----------------------------------------
-------------------|-----------------|----------------------------------------
                                                                              
outro (something like this)
--------|--------------------------------------10-|-10b12-10b12-|-12/17-------
-10h12v-|---8-10-10b12-10b12-10b12-10b12-10h12----|-------------|-------------
--------|-9---------------------------------------|-------------|-------------
--------|-----------------------------------------|-------------|-------------
--------|-----------------------------------------|-------------|-------------
--------|-----------------------------------------|-------------|-------------
------------------------------------------------------------------------------

-17b19-17b19------------------------------------------------------------------
------------------------------------------------------------------------------
------------------------------------------------------------------------------
------------------------------------------------------------------------------
------------------------------------------------------------------------------
------------------------------------------------------------------------------
                                                                              
 Comments (click here to add a non-facebook comment)
One of his best,,, well done!!!!!
-aussief | 11/12/2011
Home | FAQs | Privacy | Terms | Contact
Top 100 Tab Sites